  0
SECTION
  2
HEADER
  9
$ACADVER
  1
AC1014
  9
$ACADMAINTVER
 70
     9
  9
$DWGCODEPAGE
  3
ANSI_932
  9
$INSBASE
 10
0.0
 20
0.0
 30
0.0
  9
$EXTMIN
 10
-6232.5
 20
-4365.000000000001
 30
0.0
  9
$EXTMAX
 10
6232.5
 20
4365.0
 30
0.0
  9
$LIMMIN
 10
-2227.5
 20
-1575.0
  9
$LIMMAX
 10
2227.5
 20
1575.0
  9
$ORTHOMODE
 70
     0
  9
$REGENMODE
 70
     0
  9
$FILLMODE
 70
     1
  9
$QTEXTMODE
 70
     0
  9
$MIRRTEXT
 70
     1
  9
$DRAGMODE
 70
     2
  9
$LTSCALE
 40
15.0
  9
$OSMODE
 70
    37
  9
$ATTMODE
 70
     1
  9
$TEXTSIZE
 40
0.2
  9
$TRACEWID
 40
0.05
  9
$TEXTSTYLE
  7
STANDARD
  9
$CLAYER
  8
0
  9
$CELTYPE
  6
BYLAYER
  9
$CECOLOR
 62
   256
  9
$CELTSCALE
 40
1.0
  9
$DELOBJ
 70
     1
  9
$DISPSILH
 70
     0
  9
$DIMSCALE
 40
1.0
  9
$DIMASZ
 40
0.18
  9
$DIMEXO
 40
0.0625
  9
$DIMDLI
 40
0.38
  9
$DIMRND
 40
0.0
  9
$DIMDLE
 40
0.0
  9
$DIMEXE
 40
0.18
  9
$DIMTP
 40
0.0
  9
$DIMTM
 40
0.0
  9
$DIMTXT
 40
0.18
  9
$DIMCEN
 40
0.09
  9
$DIMTSZ
 40
0.0
  9
$DIMTOL
 70
     0
  9
$DIMLIM
 70
     0
  9
$DIMTIH
 70
     1
  9
$DIMTOH
 70
     1
  9
$DIMSE1
 70
     0
  9
$DIMSE2
 70
     0
  9
$DIMTAD
 70
     3
  9
$DIMZIN
 70
     0
  9
$DIMBLK
  1

  9
$DIMASO
 70
     1
  9
$DIMSHO
 70
     1
  9
$DIMPOST
  1

  9
$DIMAPOST
  1

  9
$DIMALT
 70
     0
  9
$DIMALTD
 70
     2
  9
$DIMALTF
 40
25.4
  9
$DIMLFAC
 40
1.0
  9
$DIMTOFL
 70
     0
  9
$DIMTVP
 40
0.0
  9
$DIMTIX
 70
     0
  9
$DIMSOXD
 70
     0
  9
$DIMSAH
 70
     0
  9
$DIMBLK1
  1

  9
$DIMBLK2
  1

  9
$DIMSTYLE
  2
STANDARD
  9
$DIMCLRD
 70
     0
  9
$DIMCLRE
 70
     0
  9
$DIMCLRT
 70
     0
  9
$DIMTFAC
 40
1.0
  9
$DIMGAP
 40
0.09
  9
$DIMJUST
 70
     0
  9
$DIMSD1
 70
     0
  9
$DIMSD2
 70
     0
  9
$DIMTOLJ
 70
     1
  9
$DIMTZIN
 70
     0
  9
$DIMALTZ
 70
     0
  9
$DIMALTTZ
 70
     0
  9
$DIMFIT
 70
     3
  9
$DIMUPT
 70
     0
  9
$DIMUNIT
 70
     2
  9
$DIMDEC
 70
     4
  9
$DIMTDEC
 70
     4
  9
$DIMALTU
 70
     2
  9
$DIMALTTD
 70
     2
  9
$DIMTXSTY
  7
STANDARD
  9
$DIMAUNIT
 70
     0
  9
$LUNITS
 70
     2
  9
$LUPREC
 70
     4
  9
$SKETCHINC
 40
0.1
  9
$FILLETRAD
 40
0.5
  9
$AUNITS
 70
     0
  9
$AUPREC
 70
     0
  9
$MENU
  1
.
  9
$ELEVATION
 40
0.0
  9
$PELEVATION
 40
0.0
  9
$THICKNESS
 40
0.0
  9
$LIMCHECK
 70
     1
  9
$CHAMFERA
 40
0.5
  9
$CHAMFERB
 40
0.5
  9
$CHAMFERC
 40
1.0
  9
$CHAMFERD
 40
0.0
  9
$SKPOLY
 70
     0
  9
$TDCREATE
 40
0.0
  9
$TDUPDATE
 40
2454270.683581458
  9
$TDINDWG
 40
0.0000000116
  9
$TDUSRTIMER
 40
0.0000000116
  9
$USRTIMER
 70
     1
  9
$ANGBASE
 50
0.0
  9
$ANGDIR
 70
     0
  9
$PDMODE
 70
     0
  9
$PDSIZE
 40
1.0
  9
$PLINEWID
 40
0.0
  9
$COORDS
 70
     1
  9
$SPLFRAME
 70
     0
  9
$SPLINETYPE
 70
     6
  9
$SPLINESEGS
 70
     8
  9
$ATTDIA
 70
     0
  9
$ATTREQ
 70
     1
  9
$HANDLING
 70
     1
  9
$HANDSEED
  5
414
  9
$SURFTAB1
 70
     6
  9
$SURFTAB2
 70
     6
  9
$SURFTYPE
 70
     6
  9
$SURFU
 70
     6
  9
$SURFV
 70
     6
  9
$UCSNAME
  2

  9
$UCSORG
 10
0.0
 20
0.0
 30
0.0
  9
$UCSXDIR
 10
1.0
 20
0.0
 30
0.0
  9
$UCSYDIR
 10
0.0
 20
1.0
 30
0.0
  9
$PUCSNAME
  2

  9
$PUCSORG
 10
0.0
 20
0.0
 30
0.0
  9
$PUCSXDIR
 10
1.0
 20
0.0
 30
0.0
  9
$PUCSYDIR
 10
0.0
 20
1.0
 30
0.0
  9
$USERI1
 70
     0
  9
$USERI2
 70
     0
  9
$USERI3
 70
     0
  9
$USERI4
 70
     0
  9
$USERI5
 70
     0
  9
$USERR1
 40
0.0
  9
$USERR2
 40
0.0
  9
$USERR3
 40
0.0
  9
$USERR4
 40
0.0
  9
$USERR5
 40
0.0
  9
$WORLDVIEW
 70
     1
  9
$SHADEDGE
 70
     3
  9
$SHADEDIF
 70
    70
  9
$TILEMODE
 70
     1
  9
$MAXACTVP
 70
    64
  9
$PINSBASE
 10
0.0
 20
0.0
 30
0.0
  9
$PLIMCHECK
 70
     1
  9
$PEXTMIN
 10
1.000000000000000E+20
 20
1.000000000000000E+20
 30
1.000000000000000E+20
  9
$PEXTMAX
 10
-1.000000000000000E+20
 20
-1.000000000000000E+20
 30
-1.000000000000000E+20
  9
$PLIMMIN
 10
0.0
 20
0.0
  9
$PLIMMAX
 10
12.0
 20
9.0
  9
$UNITMODE
 70
     0
  9
$VISRETAIN
 70
     0
  9
$PLINEGEN
 70
     1
  9
$PSLTSCALE
 70
     0
  9
$TREEDEPTH
 70
  3020
  9
$PICKSTYLE
 70
     1
  9
$CMLSTYLE
  2
STANDARD
  9
$CMLJUST
 70
     0
  9
$CMLSCALE
 40
1.0
  9
$PROXYGRAPHICS
 70
     0
  9
$MEASUREMENT
 70
     1
  0
ENDSEC
  0
SECTION
  2
CLASSES
  0
CLASS
  1
ACDBDICTIONARYWDFLT
  2
AcDbDictionaryWithDefault
  3
ObjectDBX Classes
 90
        0
280
     0
281
     0
  0
CLASS
  1
TABLESTYLE
  2
AcDbTableStyle
  3
ObjectDBX Classes
 90
     2047
280
     0
281
     0
  0
CLASS
  1
DICTIONARYVAR
  2
AcDbDictionaryVar
  3
ObjectDBX Classes
 90
        0
280
     0
281
     0
  0
CLASS
  1
XRECORD
  2
AcDbXrecord
  3
AutoCAD 2000
 90
        0
280
     0
281
     0
  0
CLASS
  1
LWPOLYLINE
  2
AcDbPolyline
  3
AutoCAD 2000
 90
        0
280
     0
281
     1
  0
CLASS
  1
HATCH
  2
AcDbHatch
  3
AutoCAD 2000
 90
        0
280
     0
281
     1
  0
CLASS
  1
ACDBPLACEHOLDER
  2
AcDbPlaceHolder
  3
ObjectDBX Classes
 90
        0
280
     0
281
     0
  0
CLASS
  1
LAYOUT
  2
AcDbLayout
  3
ObjectDBX Classes
 90
        0
280
     0
281
     0
  0
ENDSEC
  0
SECTION
  2
TABLES
  0
TABLE
  2
VPORT
  5
8
330
0
100
AcDbSymbolTable
 70
     2
  0
VPORT
  5
29
102
{ACAD_XDICTIONARY
360
412
102
}
330
8
100
AcDbSymbolTableRecord
100
AcDbViewportTableRecord
  2
*ACTIVE
 70
     0
 10
0.0
 20
0.0
 11
1.0
 21
1.0
 12
0.0000000000001101
 22
0.0000000000002274
 13
0.0
 23
0.0
 14
0.5
 24
0.5
 15
0.5
 25
0.5
 16
0.0
 26
0.0
 36
1.0
 17
0.0
 27
0.0
 37
0.0
 40
2968.200000000001
 41
1.427835051546392
 42
50.0
 43
0.0
 44
0.0
 50
0.0
 51
0.0
 71
     0
 72
   100
 73
     1
 74
     1
 75
     0
 76
     0
 77
     0
 78
     0
  0
ENDTAB
  0
TABLE
  2
LTYPE
  5
5
330
0
100
AcDbSymbolTable
 70
    28
  0
LTYPE
  5
14
330
5
100
AcDbSymbolTableRecord
100
AcDbLinetypeTableRecord
  2
BYBLOCK
 70
     0
  3

 72
    65
 73
     0
 40
0.0
  0
LTYPE
  5
15
330
5
100
AcDbSymbolTableRecord
100
AcDbLinetypeTableRecord
  2
BYLAYER
 70
     0
  3

 72
    65
 73
     0
 40
0.0
  0
LTYPE
  5
16
330
5
100
AcDbSymbolTableRecord
100
AcDbLinetypeTableRecord
  2
CONTINUOUS
 70
     0
  3
Solid line
 72
    65
 73
     0
 40
0.0
  0
LTYPE
  5
33
330
5
100
AcDbSymbolTableRecord
100
AcDbLinetypeTableRecord
  2
HIDDENX2
 70
     0
  3
CADPAC LINETYPE
 72
    65
 73
     2
 40
5.38043478260867
 49
4.035326086956502
 74
     0
 49
-1.345108695652167
 74
     0
  0
LTYPE
  5
34
330
5
100
AcDbSymbolTableRecord
100
AcDbLinetypeTableRecord
  2
HIDDEN
 70
     0
  3
CADPAC LINETYPE
 72
    65
 73
     2
 40
4.035326086956502
 49
2.690217391304335
 74
     0
 49
-1.345108695652167
 74
     0
  0
LTYPE
  5
35
330
5
100
AcDbSymbolTableRecord
100
AcDbLinetypeTableRecord
  2
HIDDEN2
 70
     0
  3
CADPAC LINETYPE
 72
    65
 73
     2
 40
3.362771739130419
 49
2.017663043478251
 74
     0
 49
-1.345108695652167
 74
     0
  0
LTYPE
  5
36
330
5
100
AcDbSymbolTableRecord
100
AcDbLinetypeTableRecord
  2
DASHED
 70
     0
  3
CADPAC LINETYPE
 72
    65
 73
     2
 40
3.766304347826038
 49
2.690217391304335
 74
     0
 49
-1.076086956521704
 74
     0
  0
LTYPE
  5
37
330
5
100
AcDbSymbolTableRecord
100
AcDbLinetypeTableRecord
  2
DASHED2
 70
     0
  3
CADPAC LINETYPE
 72
    65
 73
     2
 40
2.42119565217384
 49
1.614130434782571
 74
     0
 49
-0.80706521739127
 74
     0
  0
LTYPE
  5
38
330
5
100
AcDbSymbolTableRecord
100
AcDbLinetypeTableRecord
  2
DASHEDX2
 70
     0
  3
CADPAC LINETYPE
 72
    65
 73
     2
 40
6.456521739130373
 49
5.38043478260867
 74
     0
 49
-1.076086956521704
 74
     0
  0
LTYPE
  5
39
330
5
100
AcDbSymbolTableRecord
100
AcDbLinetypeTableRecord
  2
DOTX2
 70
     0
  3
CADPAC LINETYPE
 72
    65
 73
     2
 40
2.353940217391255
 49
0.0
 74
     0
 49
-2.353940217391255
 74
     0
  0
LTYPE
  5
3A
330
5
100
AcDbSymbolTableRecord
100
AcDbLinetypeTableRecord
  2
DOT
 70
     0
  3
CADPAC LINETYPE
 72
    65
 73
     2
 40
1.883152173913004
 49
0.0
 74
     0
 49
-1.883152173913004
 74
     0
  0
LTYPE
  5
3B
330
5
100
AcDbSymbolTableRecord
100
AcDbLinetypeTableRecord
  2
DOT2
 70
     0
  3
CADPAC LINETYPE
 72
    65
 73
     2
 40
1.412364130434753
 49
0.0
 74
     0
 49
-1.412364130434753
 74
     0
  0
LTYPE
  5
3C
330
5
100
AcDbSymbolTableRecord
100
AcDbLinetypeTableRecord
  2
CENTERX2
 70
     0
  3
CADPAC LINETYPE
 72
    65
 73
     4
 40
8.070652173913004
 49
3.362771739130419
 74
     0
 49
-1.681385869565209
 74
     0
 49
1.345108695652167
 74
     0
 49
-1.681385869565209
 74
     0
  0
LTYPE
  5
3D
330
5
100
AcDbSymbolTableRecord
100
AcDbLinetypeTableRecord
  2
CENTER
 70
     0
  3
CADPAC LINETYPE
 72
    65
 73
     4
 40
6.18749999999997
 49
2.690217391304335
 74
     0
 49
-1.345108695652167
 74
     0
 49
0.8070652173913004
 74
     0
 49
-1.345108695652167
 74
     0
  0
LTYPE
  5
3E
330
5
100
AcDbSymbolTableRecord
100
AcDbLinetypeTableRecord
  2
CENTER2
 70
     0
  3
CADPAC LINETYPE
 72
    65
 73
     4
 40
4.304347826086936
 49
2.017663043478251
 74
     0
 49
-1.008831521739126
 74
     0
 49
0.2690217391304335
 74
     0
 49
-1.008831521739126
 74
     0
  0
LTYPE
  5
3F
330
5
100
AcDbSymbolTableRecord
100
AcDbLinetypeTableRecord
  2
DASHDOTX2
 70
     0
  3
CADPAC LINETYPE
 72
    65
 73
     4
 40
12.91304347826084
 49
6.456521739130434
 74
     0
 49
-2.152173913043468
 74
     0
 49
2.152173913043468
 74
     0
 49
-2.152173913043468
 74
     0
  0
LTYPE
  5
40
330
5
100
AcDbSymbolTableRecord
100
AcDbLinetypeTableRecord
  2
DASHDOT
 70
     0
  3
CADPAC LINETYPE
 72
    65
 73
     4
 40
6.456521739130311
 49
3.228260869565201
 74
     0
 49
-1.076086956521704
 74
     0
 49
1.076086956521704
 74
     0
 49
-1.076086956521704
 74
     0
  0
LTYPE
  5
41
330
5
100
AcDbSymbolTableRecord
100
AcDbLinetypeTableRecord
  2
DASHDOT2
 70
     0
  3
CADPAC LINETYPE
 72
    65
 73
     4
 40
4.142934782608626
 49
2.421195652173901
 74
     0
 49
-0.8070652173912776
 74
     0
 49
0.1076086956521704
 74
     0
 49
-0.8070652173912776
 74
     0
  0
LTYPE
  5
42
330
5
100
AcDbSymbolTableRecord
100
AcDbLinetypeTableRecord
  2
DIVIDEX2
 70
     0
  3
CADPAC LINETYPE
 72
    65
 73
     6
 40
17.21739130434777
 49
6.456521739130434
 74
     0
 49
-2.152173913043468
 74
     0
 49
2.152173913043468
 74
     0
 49
-2.152173913043468
 74
     0
 49
2.152173913043468
 74
     0
 49
-2.152173913043468
 74
     0
  0
LTYPE
  5
43
330
5
100
AcDbSymbolTableRecord
100
AcDbLinetypeTableRecord
  2
DIVIDE
 70
     0
  3
CADPAC LINETYPE
 72
    65
 73
     6
 40
8.608695652173719
 49
3.228260869565201
 74
     0
 49
-1.076086956521704
 74
     0
 49
1.076086956521704
 74
     0
 49
-1.076086956521704
 74
     0
 49
1.076086956521704
 74
     0
 49
-1.076086956521704
 74
     0
  0
LTYPE
  5
44
330
5
100
AcDbSymbolTableRecord
100
AcDbLinetypeTableRecord
  2
DIVIDE2
 70
     0
  3
CADPAC LINETYPE
 72
    65
 73
     6
 40
6.456521739130289
 49
2.421195652173901
 74
     0
 49
-0.8070652173912776
 74
     0
 49
0.8070652173912776
 74
     0
 49
-0.8070652173912776
 74
     0
 49
0.8070652173912776
 74
     0
 49
-0.8070652173912776
 74
     0
  0
LTYPE
  5
45
330
5
100
AcDbSymbolTableRecord
100
AcDbLinetypeTableRecord
  2
BORDERX2
 70
     0
  3
CADPAC LINETYPE
 72
    65
 73
     6
 40
11.76970108695647
 49
3.362771739130419
 74
     0
 49
-1.681385869565209
 74
     0
 49
3.362771739130419
 74
     0
 49
-1.681385869565209
 74
     0
 49
0.0
 74
     0
 49
-1.681385869565209
 74
     0
  0
LTYPE
  5
46
330
5
100
AcDbSymbolTableRecord
100
AcDbLinetypeTableRecord
  2
BORDER
 70
     0
  3
CADPAC LINETYPE
 72
    65
 73
     6
 40
9.415760869565171
 49
2.690217391304335
 74
     0
 49
-1.345108695652167
 74
     0
 49
2.690217391304335
 74
     0
 49
-1.345108695652167
 74
     0
 49
0.0
 74
     0
 49
-1.345108695652167
 74
     0
  0
LTYPE
  5
47
330
5
100
AcDbSymbolTableRecord
100
AcDbLinetypeTableRecord
  2
BORDER2
 70
     0
  3
CADPAC LINETYPE
 72
    65
 73
     6
 40
6.994565217391179
 49
2.152173913043468
 74
     0
 49
-1.345108695652137
 74
     0
 49
0.80706521739127
 74
     0
 49
-1.345108695652137
 74
     0
 49
0.0
 74
     0
 49
-1.345108695652167
 74
     0
  0
LTYPE
  5
48
330
5
100
AcDbSymbolTableRecord
100
AcDbLinetypeTableRecord
  2
PHANTOMX2
 70
     0
  3
CADPAC LINETYPE
 72
    65
 73
     6
 40
10.08831521739126
 49
3.362771739130419
 74
     0
 49
-1.345108695652167
 74
     0
 49
1.345108695652167
 74
     0
 49
-1.345108695652167
 74
     0
 49
1.345108695652167
 74
     0
 49
-1.345108695652167
 74
     0
  0
LTYPE
  5
49
330
5
100
AcDbSymbolTableRecord
100
AcDbLinetypeTableRecord
  2
PHANTOM
 70
     0
  3
CADPAC LINETYPE
 72
    65
 73
     6
 40
8.339673913043438
 49
2.690217391304335
 74
     0
 49
-1.345108695652167
 74
     0
 49
0.8070652173913004
 74
     0
 49
-1.345108695652167
 74
     0
 49
0.8070652173913004
 74
     0
 49
-1.345108695652167
 74
     0
  0
LTYPE
  5
4A
330
5
100
AcDbSymbolTableRecord
100
AcDbLinetypeTableRecord
  2
PHANTOM2
 70
     0
  3
CADPAC LINETYPE
 72
    65
 73
     6
 40
7.129076086956487
 49
2.017663043478251
 74
     0
 49
-1.345108695652167
 74
     0
 49
0.538043478260867
 74
     0
 49
-1.345108695652167
 74
     0
 49
0.538043478260867
 74
     0
 49
-1.345108695652167
 74
     0
  0
LTYPE
  5
4B
330
5
100
AcDbSymbolTableRecord
100
AcDbLinetypeTableRecord
  2
ACAD_ISO06W100
 70
     0
  3
CADPAC LINETYPE
 72
    65
 73
     8
 40
14.25815217391279
 49
6.456521739130434
 74
     0
 49
-1.345108695652137
 74
     0
 49
0.80706521739127
 74
     0
 49
-1.345108695652137
 74
     0
 49
0.80706521739127
 74
     0
 49
-1.345108695652137
 74
     0
 49
0.80706521739127
 74
     0
 49
-1.345108695652137
 74
     0
  0
LTYPE
  5
4C
330
5
100
AcDbSymbolTableRecord
100
AcDbLinetypeTableRecord
  2
ACAD_ISO13W100
 70
     0
  3
CADPAC LINETYPE
 72
    65
 73
     8
 40
10.76086956521734
 49
2.690217391304335
 74
     0
 49
-1.345108695652167
 74
     0
 49
2.690217391304335
 74
     0
 49
-1.345108695652167
 74
     0
 49
0.0
 74
     0
 49
-1.345108695652167
 74
     0
 49
0.0
 74
     0
 49
-1.345108695652167
 74
     0
  0
LTYPE
  5
4D
330
5
100
AcDbSymbolTableRecord
100
AcDbLinetypeTableRecord
  2
ACAD_ISO14W100
 70
     0
  3
CADPAC LINETYPE
 72
    65
 73
     8
 40
8.070652173913004
 49
2.690217391304335
 74
     0
 49
-1.345108695652167
 74
     0
 49
0.0
 74
     0
 49
-1.345108695652167
 74
     0
 49
0.0
 74
     0
 49
-1.345108695652167
 74
     0
 49
0.0
 74
     0
 49
-1.345108695652167
 74
     0
  0
ENDTAB
  0
TABLE
  2
LAYER
  5
2
330
0
100
AcDbSymbolTable
 70
     4
  0
LAYER
  5
10
330
2
100
AcDbSymbolTableRecord
100
AcDbLayerTableRecord
  2
0
 70
     0
 62
     7
  6
CONTINUOUS
  0
LAYER
  5
2F
330
2
100
AcDbSymbolTableRecord
100
AcDbLayerTableRecord
  2
LAYER0001
 70
     0
 62
     7
  6
CONTINUOUS
  0
LAYER
  5
30
330
2
100
AcDbSymbolTableRecord
100
AcDbLayerTableRecord
  2
LAYER0016
 70
     0
 62
     7
  6
CONTINUOUS
  0
LAYER
  5
31
330
2
100
AcDbSymbolTableRecord
100
AcDbLayerTableRecord
  2
LAYER0064
 70
     0
 62
     7
  6
CONTINUOUS
  0
ENDTAB
  0
TABLE
  2
STYLE
  5
3
330
0
100
AcDbSymbolTable
 70
     3
  0
STYLE
  5
11
330
3
100
AcDbSymbolTableRecord
100
AcDbTextStyleTableRecord
  2
STANDARD
 70
     0
 40
0.0
 41
1.0
 50
0.0
 71
     0
 42
0.2
  3
txt
  4

  0
STYLE
  5
27D
330
3
100
AcDbSymbolTableRecord
100
AcDbTextStyleTableRecord
  2
FDASTYLE0
 70
     0
 40
45.0
 41
0.8000000000000017
 50
0.0
 71
     0
 42
0.2
  3
txt.shx
  4
bigfont
  0
STYLE
  5
3AB
330
3
100
AcDbSymbolTableRecord
100
AcDbTextStyleTableRecord
  2
FDASTYLE1
 70
     0
 40
56.25
 41
0.77
 50
0.0
 71
     0
 42
0.2
  3
MSMINCHO.TTC
  4

1001
ACAD
1000
ＭＳ 明朝
1071
       34
  0
ENDTAB
  0
TABLE
  2
VIEW
  5
6
330
0
100
AcDbSymbolTable
 70
     0
  0
ENDTAB
  0
TABLE
  2
UCS
  5
7
330
0
100
AcDbSymbolTable
 70
     0
  0
ENDTAB
  0
TABLE
  2
APPID
  5
9
330
0
100
AcDbSymbolTable
 70
     2
  0
APPID
  5
12
330
9
100
AcDbSymbolTableRecord
100
AcDbRegAppTableRecord
  2
ACAD
 70
     0
  0
APPID
  5
2E
330
9
100
AcDbSymbolTableRecord
100
AcDbRegAppTableRecord
  2
DAFUSIONOUT
 70
     0
  0
ENDTAB
  0
TABLE
  2
DIMSTYLE
  5
A
330
0
100
AcDbSymbolTable
 70
     1
  0
DIMSTYLE
105
27
330
A
100
AcDbSymbolTableRecord
100
AcDbDimStyleTableRecord
  2
STANDARD
 70
     0
  3

  4

  5

  6

  7

 40
1.0
 41
0.18
 42
0.0625
 43
0.38
 44
0.18
 45
0.0
 46
0.0
 47
0.0
 48
0.0
140
0.18
141
0.09
142
0.0
143
25.4
144
1.0
145
0.0
146
1.0
147
0.09
 71
     0
 72
     0
 73
     1
 74
     1
 75
     0
 76
     0
 77
     0
 78
     0
170
     0
171
     2
172
     0
173
     0
174
     0
175
     0
176
     0
177
     0
178
     0
270
     2
271
     4
272
     4
273
     2
274
     2
340
11
275
     0
280
     0
281
     0
282
     0
283
     1
284
     0
285
     0
286
     0
287
     3
288
     0
  0
ENDTAB
  0
TABLE
  2
BLOCK_RECORD
  5
1
330
0
100
AcDbSymbolTable
 70
    36
  0
BLOCK_RECORD
  5
1F
330
1
100
AcDbSymbolTableRecord
100
AcDbBlockTableRecord
  2
*MODEL_SPACE
  0
BLOCK_RECORD
  5
1B
330
1
100
AcDbSymbolTableRecord
100
AcDbBlockTableRecord
  2
*PAPER_SPACE
  0
BLOCK_RECORD
  5
4E
330
1
100
AcDbSymbolTableRecord
100
AcDbBlockTableRecord
  2
GROUP_1
  0
BLOCK_RECORD
  5
51
330
1
100
AcDbSymbolTableRecord
100
AcDbBlockTableRecord
  2
GROUP_2
  0
BLOCK_RECORD
  5
54
330
1
100
AcDbSymbolTableRecord
100
AcDbBlockTableRecord
  2
GROUP_3
  0
BLOCK_RECORD
  5
57
330
1
100
AcDbSymbolTableRecord
100
AcDbBlockTableRecord
  2
GROUP_4
  0
BLOCK_RECORD
  5
5A
330
1
100
AcDbSymbolTableRecord
100
AcDbBlockTableRecord
  2
GROUP_5
  0
BLOCK_RECORD
  5
5D
330
1
100
AcDbSymbolTableRecord
100
AcDbBlockTableRecord
  2
GROUP_6
  0
BLOCK_RECORD
  5
60
330
1
100
AcDbSymbolTableRecord
100
AcDbBlockTableRecord
  2
GROUP_7
  0
BLOCK_RECORD
  5
63
330
1
100
AcDbSymbolTableRecord
100
AcDbBlockTableRecord
  2
GROUP_8
  0
BLOCK_RECORD
  5
66
330
1
100
AcDbSymbolTableRecord
100
AcDbBlockTableRecord
  2
GROUP_9
  0
BLOCK_RECORD
  5
69
330
1
100
AcDbSymbolTableRecord
100
AcDbBlockTableRecord
  2
GROUP_10
  0
BLOCK_RECORD
  5
6C
330
1
100
AcDbSymbolTableRecord
100
AcDbBlockTableRecord
  2
GROUP_11
  0
BLOCK_RECORD
  5
6F
330
1
100
AcDbSymbolTableRecord
100
AcDbBlockTableRecord
  2
DA_IMAGEDIMGROUP_1
  0
BLOCK_RECORD
  5
72
330
1
100
AcDbSymbolTableRecord
100
AcDbBlockTableRecord
  2
DA_IMAGEDIMGROUP_2
  0
BLOCK_RECORD
  5
75
330
1
100
AcDbSymbolTableRecord
100
AcDbBlockTableRecord
  2
DA_IMAGEDIMGROUP_3
  0
BLOCK_RECORD
  5
78
330
1
100
AcDbSymbolTableRecord
100
AcDbBlockTableRecord
  2
DA_IMAGEDIMGROUP_4
  0
BLOCK_RECORD
  5
7B
330
1
100
AcDbSymbolTableRecord
100
AcDbBlockTableRecord
  2
DA_IMAGEDIMGROUP_5
  0
BLOCK_RECORD
  5
7E
330
1
100
AcDbSymbolTableRecord
100
AcDbBlockTableRecord
  2
DA_IMAGEDIMGROUP_6
  0
BLOCK_RECORD
  5
81
330
1
100
AcDbSymbolTableRecord
100
AcDbBlockTableRecord
  2
DA_IMAGEDIMGROUP_7
  0
BLOCK_RECORD
  5
84
330
1
100
AcDbSymbolTableRecord
100
AcDbBlockTableRecord
  2
DA_IMAGEDIMGROUP_8
  0
BLOCK_RECORD
  5
87
330
1
100
AcDbSymbolTableRecord
100
AcDbBlockTableRecord
  2
DA_IMAGEDIMGROUP_9
  0
BLOCK_RECORD
  5
8A
330
1
100
AcDbSymbolTableRecord
100
AcDbBlockTableRecord
  2
DA_IMAGEDIMGROUP_10
  0
BLOCK_RECORD
  5
8D
330
1
100
AcDbSymbolTableRecord
100
AcDbBlockTableRecord
  2
DA_IMAGEDIMGROUP_11
  0
BLOCK_RECORD
  5
90
330
1
100
AcDbSymbolTableRecord
100
AcDbBlockTableRecord
  2
GROUP_12
  0
BLOCK_RECORD
  5
93
330
1
100
AcDbSymbolTableRecord
100
AcDbBlockTableRecord
  2
GROUP_13
  0
BLOCK_RECORD
  5
96
330
1
100
AcDbSymbolTableRecord
100
AcDbBlockTableRecord
  2
GROUP_14
  0
BLOCK_RECORD
  5
99
330
1
100
AcDbSymbolTableRecord
100
AcDbBlockTableRecord
  2
GROUP_15
  0
BLOCK_RECORD
  5
9C
330
1
100
AcDbSymbolTableRecord
100
AcDbBlockTableRecord
  2
GROUP_16
  0
BLOCK_RECORD
  5
9F
330
1
100
AcDbSymbolTableRecord
100
AcDbBlockTableRecord
  2
GROUP_17
  0
BLOCK_RECORD
  5
A2
330
1
100
AcDbSymbolTableRecord
100
AcDbBlockTableRecord
  2
GROUP_18
  0
BLOCK_RECORD
  5
A5
330
1
100
AcDbSymbolTableRecord
100
AcDbBlockTableRecord
  2
DA_IMAGEDIMGROUP_12
  0
BLOCK_RECORD
  5
A8
330
1
100
AcDbSymbolTableRecord
100
AcDbBlockTableRecord
  2
DA_IMAGEDIMGROUP_13
  0
BLOCK_RECORD
  5
AB
330
1
100
AcDbSymbolTableRecord
100
AcDbBlockTableRecord
  2
GROUP_19
  0
BLOCK_RECORD
  5
AE
330
1
100
AcDbSymbolTableRecord
100
AcDbBlockTableRecord
  2
GROUP_20
  0
BLOCK_RECORD
  5
B1
330
1
100
AcDbSymbolTableRecord
100
AcDbBlockTableRecord
  2
GROUP_21
  0
BLOCK_RECORD
  5
275
330
1
100
AcDbSymbolTableRecord
100
AcDbBlockTableRecord
  2
_OPEN30
  0
ENDTAB
  0
ENDSEC
  0
SECTION
  2
BLOCKS
  0
BLOCK
  5
20
330
1F
100
AcDbEntity
  8
0
100
AcDbBlockBegin
  2
*MODEL_SPACE
 70
     0
 71
     0
 10
0.0
 20
0.0
 30
0.0
  3
*MODEL_SPACE
  1

  0
ENDBLK
  5
21
330
1F
100
AcDbEntity
  8
0
100
AcDbBlockEnd
  0
BLOCK
  5
1C
330
1B
100
AcDbEntity
 67
     1
  8
0
100
AcDbBlockBegin
  2
*PAPER_SPACE
 70
     0
 71
     0
 10
0.0
 20
0.0
 30
0.0
  3
*PAPER_SPACE
  1

  0
ENDBLK
  5
1D
330
1B
100
AcDbEntity
 67
     1
  8
0
100
AcDbBlockEnd
  0
BLOCK
  5
4F
330
4E
100
AcDbEntity
  8
0
100
AcDbBlockBegin
  2
GROUP_1
 70
     0
 71
     0
 10
0.0
 20
0.0
 30
0.0
  3
GROUP_1
  1

  0
LINE
  5
B4
330
4E
100
AcDbEntity
  8
0
 62
     7
100
AcDbLine
 10
-2077.5
 20
-1455.0
 30
0.0
 11
2077.5
 21
-1455.0
 31
0.0
  0
LINE
  5
B5
330
4E
100
AcDbEntity
  8
0
 62
     7
100
AcDbLine
 10
2077.500000000001
 20
1455.000000000001
 30
0.0
 11
-2077.5
 21
1455.000000000001
 31
0.0
  0
LINE
  5
B6
330
4E
100
AcDbEntity
  8
0
 62
     7
100
AcDbLine
 10
-2077.5
 20
1455.000000000001
 30
0.0
 11
-2077.5
 21
-1455.0
 31
0.0
  0
LINE
  5
B7
330
4E
100
AcDbEntity
  8
0
 62
     7
100
AcDbLine
 10
2077.5
 20
-1455.0
 30
0.0
 11
2077.500000000001
 21
1455.000000000001
 31
0.0
  0
ENDBLK
  5
50
330
4E
100
AcDbEntity
  8
0
100
AcDbBlockEnd
  0
BLOCK
  5
52
330
51
100
AcDbEntity
  8
0
100
AcDbBlockBegin
  2
GROUP_2
 70
     0
 71
     0
 10
0.0
 20
0.0
 30
0.0
  3
GROUP_2
  1

  0
LINE
  5
B8
330
51
100
AcDbEntity
  8
0
 62
     7
100
AcDbLine
 10
-1434.027134023005
 20
-882.4330666609357
 30
0.0
 11
-1437.468594023005
 21
-877.5181516609358
 31
0.0
  0
LINE
  5
B9
330
51
100
AcDbEntity
  8
0
 62
     7
100
AcDbLine
 10
-1531.205234023005
 20
-555.515776303487
 30
0.0
 11
-1522.772219023005
 21
-556.4772463034871
 31
0.0
  0
LINE
  5
BA
330
51
100
AcDbEntity
  8
0
 62
     7
100
AcDbLine
 10
-1522.772219023005
 20
-556.4772463034871
 30
0.0
 11
-1514.274529023005
 21
-556.798536303487
 31
0.0
  0
LINE
  5
BB
330
51
100
AcDbEntity
  8
0
 62
     7
100
AcDbLine
 10
-1514.274529023005
 20
-556.798536303487
 30
0.0
 11
-1505.776839023005
 21
-556.477216303487
 31
0.0
  0
LINE
  5
BC
330
51
100
AcDbEntity
  8
0
 62
     7
100
AcDbLine
 10
-1505.776839023005
 20
-556.477216303487
 30
0.0
 11
-1497.343824023006
 21
-555.515721303487
 31
0.0
  0
ARC
  5
BD
330
51
100
AcDbEntity
  8
0
 62
     7
100
AcDbCircle
 10
-1514.274724023006
 20
-854.9999716609358
 30
0.0
 40
82.59999999999957
100
AcDbArc
 50
208.0767308503865
 51
331.9232691496133
  0
LINE
  5
BE
330
51
100
AcDbEntity
  8
0
 62
     7
100
AcDbLine
 10
-1653.274724023004
 20
-250.7686163034869
 30
0.0
 11
-1653.274724023004
 21
-350.7686163034869
 31
0.0
  0
LINE
  5
BF
330
51
100
AcDbEntity
  8
0
 62
     7
100
AcDbLine
 10
-1604.274724023005
 20
-1006.999971660935
 30
0.0
 11
-1585.274724023005
 21
-1006.999971660935
 31
0.0
  0
LINE
  5
C0
330
51
100
AcDbEntity
  8
0
 62
     7
100
AcDbLine
 10
-1585.274724023005
 20
-990.9999716609353
 30
0.0
 11
-1585.274724023005
 21
-1006.999971660935
 31
0.0
  0
LINE
  5
C1
330
51
100
AcDbEntity
  8
0
 62
     7
100
AcDbLine
 10
-1604.274724023005
 20
-990.9999716609353
 30
0.0
 11
-1604.274724023005
 21
-1006.999971660935
 31
0.0
  0
LINE
  5
C2
330
51
100
AcDbEntity
  8
0
 62
     7
100
AcDbLine
 10
-1243.274724023006
 20
-1006.999971660935
 30
0.0
 11
-1224.274724023006
 21
-1006.999971660935
 31
0.0
  0
LINE
  5
C3
330
51
100
AcDbEntity
  8
0
 62
     7
100
AcDbLine
 10
-1243.274724023006
 20
-990.9999716609353
 30
0.0
 11
-1243.274724023006
 21
-1006.999971660935
 31
0.0
  0
LINE
  5
C4
330
51
100
AcDbEntity
  8
0
 62
     7
100
AcDbLine
 10
-1224.274724023006
 20
-990.9999716609353
 30
0.0
 11
-1224.274724023006
 21
-1006.999971660935
 31
0.0
  0
ARC
  5
C5
330
51
100
AcDbEntity
  8
0
  6
DASHED2
 62
     7
100
AcDbCircle
 10
-1514.274724023006
 20
-854.9999716609357
 30
0.0
 40
68.5
100
AcDbArc
 50
209.9999999999773
 51
304.9999999999593
  0
LINE
  5
C6
330
51
100
AcDbEntity
  8
0
  6
DASHED2
 62
     7
100
AcDbLine
 10
-1568.401309023005
 20
-886.2499716609357
 30
0.0
 11
-1618.274724023005
 21
-799.8666866609354
 31
0.0
  0
LINE
  5
C7
330
51
100
AcDbEntity
  8
0
  6
DASHED2
 62
     7
100
AcDbLine
 10
-1573.597464023005
 20
-889.2499716609357
 30
0.0
 11
-1624.274724023005
 21
-801.4743816609354
 31
0.0
  0
LINE
  5
C8
330
51
100
AcDbEntity
  8
0
  6
DASHED2
 62
     7
100
AcDbLine
 10
-1618.274724023005
 20
-734.9999716609357
 30
0.0
 11
-1618.274724023005
 21
-799.8666866609354
 31
0.0
  0
LINE
  5
C9
330
51
100
AcDbEntity
  8
0
  6
DASHED2
 62
     7
100
AcDbLine
 10
-1210.274724023005
 20
-754.9999716609361
 30
0.0
 11
-1262.494494023005
 21
-754.999971660936
 31
0.0
  0
LINE
  5
CA
330
51
100
AcDbEntity
  8
0
  6
DASHED2
 62
     7
100
AcDbLine
 10
-1260.602704023005
 20
-760.999971660936
 30
0.0
 11
-1474.984734023005
 21
-911.1118866609356
 31
0.0
  0
LINE
  5
CB
330
51
100
AcDbEntity
  8
0
  6
DASHED2
 62
     7
100
AcDbLine
 10
-1262.494494023005
 20
-754.999971660936
 30
0.0
 11
-1478.426195432031
 21
-906.1969763126897
 31
0.0
  0
LINE
  5
CC
330
51
100
AcDbEntity
  8
0
  6
DASHED2
 62
     7
100
AcDbLine
 10
-1204.274724023005
 20
-760.9999716609361
 30
0.0
 11
-1260.602704023005
 21
-760.999971660936
 31
0.0
  0
LINE
  5
CD
330
51
100
AcDbEntity
  8
0
  6
DASHED2
 62
     7
100
AcDbLine
 10
-1210.274724023005
 20
-754.9999716609361
 30
0.0
 11
-1210.274724023005
 21
-734.9999716609361
 31
0.0
  0
ARC
  5
CE
330
51
100
AcDbEntity
  8
0
  6
DASHED2
 62
     7
100
AcDbCircle
 10
-1514.274724023006
 20
-854.9999716609358
 30
0.0
 40
82.59999999999957
100
AcDbArc
 50
331.9232691496133
 51
208.0767308503865
  0
LINE
  5
CF
330
51
100
AcDbEntity
  8
0
  6
DASHED2
 62
     7
100
AcDbLine
 10
-1431.674724023006
 20
-854.9999716159018
 30
0.0
 11
-1431.674724023006
 21
-815.9336718756831
 31
0.0
  0
LINE
  5
D0
330
51
100
AcDbEntity
  8
0
  6
DASHED2
 62
     7
100
AcDbLine
 10
-1596.874724023005
 20
-854.9999716609357
 30
0.0
 11
-1596.874724023005
 21
-815.9336718756829
 31
0.0
  0
LINE
  5
D1
330
51
100
AcDbEntity
  8
0
 62
     3
100
AcDbLine
 10
-1204.274724023005
 20
-734.9999716609361
 30
0.0
 11
-1204.274724023006
 21
-990.9999716609359
 31
0.0
  0
LINE
  5
D2
330
51
100
AcDbEntity
  8
0
 62
     3
100
AcDbLine
 10
-1624.274724023005
 20
-734.9999716609356
 30
0.0
 11
-1624.274724023005
 21
-990.9999716609353
 31
0.0
  0
LINE
  5
D3
330
51
100
AcDbEntity
  8
0
 62
     3
100
AcDbLine
 10
-1409.274724023005
 20
-742.9999716609358
 30
0.0
 11
-1204.274724023005
 21
-742.9999716609361
 31
0.0
  0
LINE
  5
D4
330
51
100
AcDbEntity
  8
0
 62
     3
100
AcDbLine
 10
-1624.274724023005
 20
-974.9999716609356
 30
0.0
 11
-1204.274724023006
 21
-974.9999716609361
 31
0.0
  0
LINE
  5
D5
330
51
100
AcDbEntity
  8
0
 62
     3
100
AcDbLine
 10
-1624.274724023005
 20
-990.9999716609353
 30
0.0
 11
-1204.274724023006
 21
-990.9999716609359
 31
0.0
  0
LINE
  5
D6
330
51
100
AcDbEntity
  8
0
 62
     3
100
AcDbLine
 10
-1204.274724023005
 20
-754.9999716609361
 30
0.0
 11
-1409.274724023005
 21
-754.9999716609358
 31
0.0
  0
LINE
  5
D7
330
51
100
AcDbEntity
  8
0
 62
     3
100
AcDbLine
 10
-1409.274724023006
 20
-974.9999716609359
 30
0.0
 11
-1409.274724023005
 21
-742.9999716609358
 31
0.0
  0
LINE
  5
D8
330
51
100
AcDbEntity
  8
0
 62
     3
100
AcDbLine
 10
-1614.274724023004
 20
-472.3615363034869
 30
0.0
 11
-1614.274724023004
 21
-291.9544613034868
 31
0.0
  0
LINE
  5
D9
330
51
100
AcDbEntity
  8
0
 62
     3
100
AcDbLine
 10
-1414.274724023005
 20
-472.3615363034871
 30
0.0
 11
-1414.274724023005
 21
-291.9544613034871
 31
0.0
  0
LINE
  5
DA
330
51
100
AcDbEntity
  8
0
 62
     3
100
AcDbLine
 10
-1399.274724023004
 20
-245.7686163034871
 30
0.0
 11
-1389.274724023004
 21
-255.7686163034871
 31
0.0
  0
ARC
  5
DB
330
51
100
AcDbEntity
  8
0
 62
     3
100
AcDbCircle
 10
-1514.274724023005
 20
-472.361536303487
 30
0.0
 40
100.0
100
AcDbArc
 50
179.9999999999659
 51
359.999999999932
  0
LINE
  5
DC
330
51
100
AcDbEntity
  8
0
 62
     3
100
AcDbLine
 10
-1639.274724023004
 20
-255.7686163034869
 30
0.0
 11
-1629.274724023004
 21
-245.7686163034869
 31
0.0
  0
LINE
  5
DD
330
51
100
AcDbEntity
  8
0
 62
     3
100
AcDbLine
 10
-1629.274724023004
 20
-571.9544613034869
 30
0.0
 11
-1639.274724023004
 21
-561.9544613034869
 31
0.0
  0
LINE
  5
DE
330
51
100
AcDbEntity
  8
0
 62
     3
100
AcDbLine
 10
-1399.274724023005
 20
-571.9544613034872
 30
0.0
 11
-1389.274724023005
 21
-561.9544613034873
 31
0.0
  0
LINE
  5
DF
330
51
100
AcDbEntity
  8
0
 62
     3
100
AcDbLine
 10
-1399.274724023004
 20
-245.7686163034871
 30
0.0
 11
-1629.274724023004
 21
-245.7686163034869
 31
0.0
  0
LINE
  5
E0
330
51
100
AcDbEntity
  8
0
 62
     3
100
AcDbLine
 10
-1629.274724023004
 20
-571.9544613034869
 30
0.0
 11
-1399.274724023005
 21
-571.9544613034872
 31
0.0
  0
LINE
  5
E1
330
51
100
AcDbEntity
  8
0
 62
     3
100
AcDbLine
 10
-1389.274724023004
 20
-255.7686163034871
 30
0.0
 11
-1389.274724023005
 21
-561.9544613034873
 31
0.0
  0
LINE
  5
E2
330
51
100
AcDbEntity
  8
0
 62
     3
100
AcDbLine
 10
-1639.274724023004
 20
-255.7686163034869
 30
0.0
 11
-1639.274724023004
 21
-561.9544613034869
 31
0.0
  0
ELLIPSE
  5
E3
330
51
100
AcDbEntity
  8
0
 62
     3
100
AcDbEllipse
 10
-1514.274724023006
 20
-815.933671875683
 30
0.0
 11
-80.69999999999936
 21
1.136868377216160E-13
 31
0.0
210
0.0
220
0.0
230
1.0
 40
0.8660470879801735
 41
0.0
 42
3.141592653589802
  0
LINE
  5
E4
330
51
100
AcDbEntity
  8
0
 62
     3
100
AcDbLine
 10
-1624.274724023005
 20
-734.9999716609356
 30
0.0
 11
-1598.859542868566
 21
-734.9999716609356
 31
0.0
  0
LINE
  5
E5
330
51
100
AcDbEntity
  8
0
 62
     3
100
AcDbLine
 10
-1606.994267622967
 20
-571.9544613034869
 30
0.0
 11
-1594.974724023005
 21
-815.9336718756829
 31
0.0
  0
LINE
  5
E6
330
51
100
AcDbEntity
  8
0
 62
     3
100
AcDbLine
 10
-1421.412094614571
 20
-571.9544613034872
 30
0.0
 11
-1433.574724023005
 21
-815.9336718756822
 31
0.0
  0
ELLIPSE
  5
E7
330
51
100
AcDbEntity
  8
0
 62
     3
100
AcDbEllipse
 10
-1514.274724023005
 20
-472.361536303487
 30
0.0
 11
-97.49962996408365
 21
-0.007824079145572416
 31
0.0
210
0.0
220
0.0
230
1.0
 40
0.8660237968006461
 41
0.0
 42
6.283185307179586
  0
LINE
  5
E8
330
51
100
AcDbEntity
  8
0
  6
DASHED2
 62
     3
100
AcDbLine
 10
-1429.64365862568
 20
-734.9999716609358
 30
0.0
 11
-1204.274724023005
 21
-734.9999716609361
 31
0.0
  0
LINE
  5
E9
330
51
100
AcDbEntity
  8
0
  6
DASHED2
 62
     3
100
AcDbLine
 10
-1429.64365862568
 20
-734.9999716609327
 30
0.0
 11
-1598.859542868566
 21
-734.9999716609356
 31
0.0
  0
LINE
  5
EA
330
51
100
AcDbEntity
  8
0
  6
DASHED2
 62
     3
100
AcDbLine
 10
-1611.774724023004
 20
-472.361651303487
 30
0.0
 11
-1606.994267622967
 21
-571.9544613034869
 31
0.0
  0
LINE
  5
EB
330
51
100
AcDbEntity
  8
0
  6
DASHED2
 62
     3
100
AcDbLine
 10
-1416.574724023005
 20
-472.3615363036031
 30
0.0
 11
-1421.412094614571
 21
-571.9544613034872
 31
0.0
  0
LINE
  5
EC
330
51
100
AcDbEntity
  8
0
  6
CENTER
 62
     9
100
AcDbLine
 10
-1221.491953512948
 20
-864.9999716609361
 30
0.0
 11
-1402.057489512948
 21
-864.9999716609359
 31
0.0
  0
LINE
  5
ED
330
51
100
AcDbEntity
  8
0
  6
CENTER
 62
     9
100
AcDbLine
 10
-1665.556924023005
 20
-472.3615363034868
 30
0.0
 11
-1366.453124575359
 21
-472.405048761114
 31
0.0
  0
LINE
  5
EE
330
51
100
AcDbEntity
  8
0
  6
CENTER
 62
     9
100
AcDbLine
 10
-1409.274724023005
 20
-815.9336718756831
 30
0.0
 11
-1624.274724023005
 21
-815.9336718756829
 31
0.0
  0
CIRCLE
  5
EF
330
51
100
AcDbEntity
  8
0
  6
CENTER
 62
     9
100
AcDbCircle
 10
-1311.774724023005
 20
-864.9999760084838
 30
0.0
 40
75.93625751005801
  0
LINE
  5
F0
330
51
100
AcDbEntity
  8
0
 62
     2
100
AcDbLine
 10
-1204.274724023005
 20
-693.0000331729291
 30
0.0
 11
-1409.274724023005
 21
-693.0000331729287
 31
0.0
  0
LINE
  5
F1
330
51
100
AcDbEntity
  8
0
 62
     2
100
AcDbLine
 10
-1409.274724023005
 20
-693.0000331729287
 30
0.0
 11
-1409.274724023005
 21
-705.0000331729287
 31
0.0
  0
LINE
  5
F2
330
51
100
AcDbEntity
  8
0
 62
     2
100
AcDbLine
 10
-1409.274724023005
 20
-705.0000331729287
 30
0.0
 11
-1204.274724023005
 21
-705.0000331729291
 31
0.0
  0
LINE
  5
F3
330
51
100
AcDbEntity
  8
0
 62
     2
100
AcDbLine
 10
-1204.274724023005
 20
-705.0000331729291
 30
0.0
 11
-1204.274724023005
 21
-693.0000331729291
 31
0.0
  0
LINE
  5
F4
330
51
100
AcDbEntity
  8
0
 62
     2
100
AcDbLine
 10
-1639.274724023004
 20
-374.1609213034869
 30
0.0
 11
-1614.274724023004
 21
-374.1609213034869
 31
0.0
  0
LINE
  5
F5
330
51
100
AcDbEntity
  8
0
 62
     2
100
AcDbLine
 10
-1611.974724023004
 20
-374.1609213034869
 30
0.0
 11
-1416.574724023005
 21
-374.1609213034872
 31
0.0
  0
LINE
  5
F6
330
51
100
AcDbEntity
  8
0
 62
     2
100
AcDbLine
 10
-1414.274724023005
 20
-374.1609213034872
 30
0.0
 11
-1389.274724023005
 21
-374.1609213034873
 31
0.0
  0
LINE
  5
F7
330
51
100
AcDbEntity
  8
0
 62
     2
100
AcDbLine
 10
-1414.274724023005
 20
-784.9999716609357
 30
0.0
 11
-1414.274724023005
 21
-924.9999716609357
 31
0.0
  0
LINE
  5
F8
330
51
100
AcDbEntity
  8
0
 62
     2
100
AcDbLine
 10
-1444.274724023006
 20
-954.9999716609357
 30
0.0
 11
-1414.274724023005
 21
-924.9999716609357
 31
0.0
  0
LINE
  5
F9
330
51
100
AcDbEntity
  8
0
 62
     2
100
AcDbLine
 10
-1444.274724023006
 20
-954.9999716609357
 30
0.0
 11
-1584.274724023005
 21
-954.9999716609354
 31
0.0
  0
LINE
  5
FA
330
51
100
AcDbEntity
  8
0
 62
     2
100
AcDbLine
 10
-1584.274724023005
 20
-954.9999716609354
 30
0.0
 11
-1614.274724023005
 21
-924.9999716609354
 31
0.0
  0
LINE
  5
FB
330
51
100
AcDbEntity
  8
0
 62
     2
100
AcDbLine
 10
-1614.274724023005
 20
-784.9999716609354
 30
0.0
 11
-1614.274724023005
 21
-924.9999716609354
 31
0.0
  0
LINE
  5
FC
330
51
100
AcDbEntity
  8
0
 62
     2
100
AcDbLine
 10
-1434.274724023005
 20
-893.8759582060145
 30
0.0
 11
-1594.274724023005
 21
-893.8759582060144
 31
0.0
  0
LINE
  5
FD
330
51
100
AcDbEntity
  8
0
 62
     2
100
AcDbLine
 10
-1604.274724023005
 20
-746.6516395626602
 30
0.0
 11
-1604.274724023005
 21
-885.2157026515863
 31
0.0
  0
LINE
  5
FE
330
51
100
AcDbEntity
  8
0
 62
     2
100
AcDbLine
 10
-1424.274724023005
 20
-885.2157026515865
 30
0.0
 11
-1424.274724023005
 21
-746.6516395626602
 31
0.0
  0
LINE
  5
FF
330
51
100
AcDbEntity
  8
0
 62
     2
100
AcDbLine
 10
-1594.274724023005
 20
-893.8759582060144
 30
0.0
 11
-1604.274724023005
 21
-885.2157026515863
 31
0.0
  0
LINE
  5
100
330
51
100
AcDbEntity
  8
0
 62
     2
100
AcDbLine
 10
-1424.274724023005
 20
-885.2157026515865
 30
0.0
 11
-1434.274724023005
 21
-893.8759582060146
 31
0.0
  0
LINE
  5
101
330
51
100
AcDbEntity
  8
0
 62
     2
100
AcDbLine
 10
-1414.274724023005
 20
-784.9999716609357
 30
0.0
 11
-1424.274724023005
 21
-774.9999716609357
 31
0.0
  0
LINE
  5
102
330
51
100
AcDbEntity
  8
0
 62
     2
100
AcDbLine
 10
-1604.274724023005
 20
-774.9999716609354
 30
0.0
 11
-1614.274724023005
 21
-784.9999716609354
 31
0.0
  0
LINE
  5
103
330
51
100
AcDbEntity
  8
0
 62
     2
100
AcDbLine
 10
-1424.274724023005
 20
-746.6516395626602
 30
0.0
 11
-1429.970028952391
 21
-741.7193608115133
 31
0.0
  0
LINE
  5
104
330
51
100
AcDbEntity
  8
0
 62
     2
100
AcDbLine
 10
-1598.538704558753
 20
-741.6841009900156
 30
0.0
 11
-1604.274724023005
 21
-746.65163956266
 31
0.0
  0
LINE
  5
105
330
51
100
AcDbEntity
  8
0
 62
     2
100
AcDbLine
 10
-1659.274724023004
 20
-250.7686163034869
 30
0.0
 11
-1659.274724023004
 21
-350.7686163034869
 31
0.0
  0
LINE
  5
106
330
51
100
AcDbEntity
  8
0
 62
     2
100
AcDbLine
 10
-1659.274724023004
 20
-250.7686163034869
 30
0.0
 11
-1634.274724023004
 21
-250.7686163034866
 31
0.0
  0
LINE
  5
107
330
51
100
AcDbEntity
  8
0
 62
     2
100
AcDbLine
 10
-1659.274724023004
 20
-350.7686163034869
 30
0.0
 11
-1639.274724023004
 21
-350.7686163034869
 31
0.0
  0
LINE
  5
108
330
51
100
AcDbEntity
  8
0
  6
DASHED2
 62
     2
100
AcDbLine
 10
-1434.274724023005
 20
-737.9913855248157
 30
0.0
 11
-1594.274724023004
 21
-737.9913855248154
 31
0.0
  0
LINE
  5
109
330
51
100
AcDbEntity
  8
0
  6
DASHED2
 62
     2
100
AcDbLine
 10
-1429.970028952391
 20
-741.7193608115133
 30
0.0
 11
-1434.274724023005
 21
-737.9913855248157
 31
0.0
  0
LINE
  5
10A
330
51
100
AcDbEntity
  8
0
  6
DASHED2
 62
     2
100
AcDbLine
 10
-1594.274724023004
 20
-737.9913855248154
 30
0.0
 11
-1598.538704558753
 21
-741.6841009900156
 31
0.0
  0
LINE
  5
10B
330
51
100
AcDbEntity
  8
0
  6
DASHED2
 62
     2
100
AcDbLine
 10
-1589.274724023004
 20
-250.7686163034869
 30
0.0
 11
-1589.274724023004
 21
-350.7686163034869
 31
0.0
  0
LINE
  5
10C
330
51
100
AcDbEntity
  8
0
  6
DASHED2
 62
     2
100
AcDbLine
 10
-1634.274724023004
 20
-250.7686163034866
 30
0.0
 11
-1589.274724023004
 21
-250.7686163034869
 31
0.0
  0
LINE
  5
10D
330
51
100
AcDbEntity
  8
0
  6
DASHED2
 62
     2
100
AcDbLine
 10
-1639.274724023004
 20
-350.7686163034869
 30
0.0
 11
-1589.274724023004
 21
-350.7686163034869
 31
0.0
  0
ELLIPSE
  5
10E
330
51
100
AcDbEntity
  8
0
  6
DASHED2
 62
     2
100
AcDbEllipse
 10
-1514.274724023006
 20
-815.933671875683
 30
0.0
 11
-80.69999999999936
 21
1.136868377216160E-13
 31
0.0
210
0.0
220
0.0
230
1.0
 40
0.8660470879801735
 41
3.141592653589793
 42
6.283185307179586
  0
ARC
  5
10F
330
51
100
AcDbEntity
  8
0
  6
DASHED2
 62
     7
100
AcDbCircle
 10
-1514.274724023006
 20
-854.9999716609357
 30
0.0
 40
62.49999763009774
100
AcDbArc
 50
210.0000012543318
 51
305.0000000000442
  0
ENDBLK
  5
53
330
51
100
AcDbEntity
  8
0
100
AcDbBlockEnd
  0
BLOCK
  5
55
330
54
100
AcDbEntity
  8
0
100
AcDbBlockBegin
  2
GROUP_3
 70
     0
 71
     0
 10
0.0
 20
0.0
 30
0.0
  3
GROUP_3
  1

  0
LINE
  5
113
330
54
100
AcDbEntity
  8
0
  6
CENTER
 62
     9
100
AcDbLine
 10
-1514.274724023005
 20
-211.4207455026781
 30
0.0
 11
-1514.274724023006
 21
-1006.999971660935
 31
0.0
  0
LINE
  5
114
330
54
100
AcDbEntity
  8
0
  6
CENTER
 62
     9
100
AcDbLine
 10
-1409.274724023005
 20
-854.9999716609358
 30
0.0
 11
-1624.274724023005
 21
-854.9999716609356
 31
0.0
  0
ENDBLK
  5
56
330
54
100
AcDbEntity
  8
0
100
AcDbBlockEnd
  0
BLOCK
  5
58
330
57
100
AcDbEntity
  8
0
100
AcDbBlockBegin
  2
GROUP_4
 70
     0
 71
     0
 10
0.0
 20
0.0
 30
0.0
  3
GROUP_4
  1

  0
LINE
  5
115
330
57
100
AcDbEntity
  8
0
  6
CENTER
 62
     9
100
AcDbLine
 10
-1432.274724023004
 20
-566.5999716609354
 30
0.0
 11
-1182.274724023004
 21
-566.5999716609355
 31
0.0
  0
LINE
  5
116
330
57
100
AcDbEntity
  8
0
  6
CENTER
 62
     9
100
AcDbLine
 10
-1307.274724023004
 20
-445.7533267624881
 30
0.0
 11
-1307.274724023004
 21
-750.9999716609354
 31
0.0
  0
LINE
  5
117
330
57
100
AcDbEntity
  8
0
 62
     2
100
AcDbLine
 10
-1411.874724023004
 20
-566.5999716609354
 30
0.0
 11
-1411.874724023004
 21
-750.9999716609354
 31
0.0
  0
LINE
  5
118
330
57
100
AcDbEntity
  8
0
 62
     2
100
AcDbLine
 10
-1202.674724023004
 20
-566.5978008207238
 30
0.0
 11
-1202.674724023004
 21
-750.9999716609356
 31
0.0
  0
ELLIPSE
  5
119
330
57
100
AcDbEntity
  8
0
 62
     2
100
AcDbEllipse
 10
-1307.274724023004
 20
-566.5999716609356
 30
0.0
 11
0.0
 21
104.5999999999999
 31
0.0
210
0.0
220
0.0
230
1.0
 40
0.9999999999999998
 41
4.712375046725757
 42
7.85396770031555
  0
ENDBLK
  5
59
330
57
100
AcDbEntity
  8
0
100
AcDbBlockEnd
  0
BLOCK
  5
5B
330
5A
100
AcDbEntity
  8
0
100
AcDbBlockBegin
  2
GROUP_5
 70
     0
 71
     0
 10
0.0
 20
0.0
 30
0.0
  3
GROUP_5
  1

  0
CIRCLE
  5
11A
330
5A
100
AcDbEntity
  8
LAYER0001
 62
     7
100
AcDbCircle
 10
-1311.774724023005
 20
-605.5000331729291
 30
0.0
 40
60.0
  0
LINE
  5
11B
330
5A
100
AcDbEntity
  8
LAYER0001
 62
     7
100
AcDbLine
 10
-1261.774724023005
 20
-693.0000331729291
 30
0.0
 11
-1224.774724023005
 21
-693.0000331729291
 31
0.0
  0
LINE
  5
11C
330
5A
100
AcDbEntity
  8
LAYER0001
 62
     7
100
AcDbLine
 10
-1224.774724023005
 20
-681.0000331729291
 30
0.0
 11
-1224.774724023005
 21
-693.0000331729291
 31
0.0
  0
ARC
  5
11D
330
5A
100
AcDbEntity
  8
LAYER0001
 62
     7
100
AcDbCircle
 10
-1227.774724023005
 20
-681.0000331729291
 30
0.0
 40
3.0
100
AcDbArc
 50
0.0
 51
90.0
  0
LINE
  5
11E
330
5A
100
AcDbEntity
  8
LAYER0001
 62
     7
100
AcDbLine
 10
-1261.774724023005
 20
-681.0000331729291
 30
0.0
 11
-1261.774724023005
 21
-693.0000331729291
 31
0.0
  0
LINE
  5
11F
330
5A
100
AcDbEntity
  8
LAYER0001
 62
     7
100
AcDbLine
 10
-1258.774724023005
 20
-678.0000331729291
 30
0.0
 11
-1227.774724023005
 21
-678.0000331729291
 31
0.0
  0
ARC
  5
120
330
5A
100
AcDbEntity
  8
LAYER0001
 62
     7
100
AcDbCircle
 10
-1258.774724023005
 20
-681.0000331729291
 30
0.0
 40
3.0
100
AcDbArc
 50
90.0
 51
180.0
  0
ARC
  5
121
330
5A
100
AcDbEntity
  8
LAYER0001
 62
     7
100
AcDbCircle
 10
-1264.774724023005
 20
-682.030378058329
 30
0.0
 40
3.0
100
AcDbArc
 50
240.0
 51
360.0
  0
LINE
  5
122
330
5A
100
AcDbEntity
  8
LAYER0001
 62
     7
100
AcDbLine
 10
-1224.806245565306
 20
-680.566287111229
 30
0.0
 11
-1233.173175385005
 21
-597.5756056405292
 31
0.0
  0
LINE
  5
123
330
5A
100
AcDbEntity
  8
LAYER0001
 62
     7
100
AcDbLine
 10
-1283.553562743405
 20
-680.426014775129
 30
0.0
 11
-1261.774724023005
 21
-693.0000331729291
 31
0.0
  0
ARC
  5
124
330
5A
100
AcDbEntity
  8
LAYER0001
 62
     7
100
AcDbCircle
 10
-1285.053562743405
 20
-683.0240909864291
 30
0.0
 40
3.0
100
AcDbArc
 50
60.00000000000001
 51
109.0181599137004
  0
LINE
  5
125
330
5A
100
AcDbEntity
  8
LAYER0001
 62
     7
100
AcDbLine
 10
-1274.078007964505
 20
-680.1232261855291
 30
0.0
 11
-1266.274724023005
 21
-684.6284542697291
 31
0.0
  0
ARC
  5
126
330
5A
100
AcDbEntity
  8
LAYER0001
 62
     7
100
AcDbCircle
 10
-1272.578007964505
 20
-677.5251499741291
 30
0.0
 40
3.0
100
AcDbArc
 50
118.5554297567991
 51
240.0
  0
ARC
  5
127
330
5A
100
AcDbEntity
  8
LAYER0001
 62
     7
100
AcDbCircle
 10
-1233.407976544805
 20
-675.0000331729291
 30
0.0
 40
3.0
100
AcDbArc
 50
270.0
 51
5.756976393700256
  0
LINE
  5
128
330
5A
100
AcDbEntity
  8
LAYER0001
 62
     7
100
AcDbLine
 10
-1234.032833525505
 20
-638.8946204870291
 30
0.0
 11
-1230.423107609205
 21
-674.6991055451291
 31
0.0
  0
ARC
  5
129
330
5A
100
AcDbEntity
  8
LAYER0001
 62
     7
100
AcDbCircle
 10
-1237.017702461106
 20
-639.1955481148291
 30
0.0
 40
3.0
100
AcDbArc
 50
5.75697639370025
 51
155.7373016885003
  0
LINE
  5
12A
330
5A
100
AcDbEntity
  8
LAYER0001
 62
     7
100
AcDbLine
 10
-1361.774724023005
 20
-693.0000331729291
 30
0.0
 11
-1398.774724023005
 21
-693.0000331729291
 31
0.0
  0
LINE
  5
12B
330
5A
100
AcDbEntity
  8
LAYER0001
 62
     7
100
AcDbLine
 10
-1398.774724023005
 20
-681.0000331729291
 30
0.0
 11
-1398.774724023005
 21
-693.0000331729291
 31
0.0
  0
ARC
  5
12C
330
5A
100
AcDbEntity
  8
LAYER0001
 62
     7
100
AcDbCircle
 10
-1395.774724023005
 20
-681.0000331729291
 30
0.0
 40
3.0
100
AcDbArc
 50
90.0
 51
180.0
  0
LINE
  5
12D
330
5A
100
AcDbEntity
  8
LAYER0001
 62
     7
100
AcDbLine
 10
-1361.774724023005
 20
-681.0000331729291
 30
0.0
 11
-1361.774724023005
 21
-693.0000331729291
 31
0.0
  0
LINE
  5
12E
330
5A
100
AcDbEntity
  8
LAYER0001
 62
     7
100
AcDbLine
 10
-1364.774724023005
 20
-678.0000331729291
 30
0.0
 11
-1395.774724023005
 21
-678.0000331729291
 31
0.0
  0
ARC
  5
12F
330
5A
100
AcDbEntity
  8
LAYER0001
 62
     7
100
AcDbCircle
 10
-1364.774724023005
 20
-681.0000331729291
 30
0.0
 40
3.0
100
AcDbArc
 50
0.0
 51
90.0
  0
ARC
  5
130
330
5A
100
AcDbEntity
  8
LAYER0001
 62
     7
100
AcDbCircle
 10
-1358.774724023005
 20
-682.030378058329
 30
0.0
 40
3.0
100
AcDbArc
 50
180.0
 51
299.9999999999999
  0
LINE
  5
131
330
5A
100
AcDbEntity
  8
LAYER0001
 62
     7
100
AcDbLine
 10
-1398.743202480705
 20
-680.566287111229
 30
0.0
 11
-1390.376272660905
 21
-597.5756056405292
 31
0.0
  0
LINE
  5
132
330
5A
100
AcDbEntity
  8
LAYER0001
 62
     7
100
AcDbLine
 10
-1339.995885302605
 20
-680.426014775129
 30
0.0
 11
-1361.774724023005
 21
-693.0000331729291
 31
0.0
  0
ARC
  5
133
330
5A
100
AcDbEntity
  8
LAYER0001
 62
     7
100
AcDbCircle
 10
-1338.495885302605
 20
-683.0240909864291
 30
0.0
 40
3.0
100
AcDbArc
 50
70.98184008629958
 51
120.0
  0
LINE
  5
134
330
5A
100
AcDbEntity
  8
LAYER0001
 62
     7
100
AcDbLine
 10
-1349.471440081505
 20
-680.1232261855291
 30
0.0
 11
-1357.274724023005
 21
-684.6284542697291
 31
0.0
  0
ARC
  5
135
330
5A
100
AcDbEntity
  8
LAYER0001
 62
     7
100
AcDbCircle
 10
-1350.971440081505
 20
-677.5251499741291
 30
0.0
 40
3.0
100
AcDbArc
 50
299.9999999999999
 51
61.44457024319996
  0
ARC
  5
136
330
5A
100
AcDbEntity
  8
LAYER0001
 62
     7
100
AcDbCircle
 10
-1390.141471501105
 20
-675.0000331729291
 30
0.0
 40
3.0
100
AcDbArc
 50
174.2430236062997
 51
270.0
  0
LINE
  5
137
330
5A
100
AcDbEntity
  8
LAYER0001
 62
     7
100
AcDbLine
 10
-1389.516614520505
 20
-638.8946204870291
 30
0.0
 11
-1393.126340436705
 21
-674.6991055451291
 31
0.0
  0
ARC
  5
138
330
5A
100
AcDbEntity
  8
LAYER0001
 62
     7
100
AcDbCircle
 10
-1386.531745584905
 20
-639.1955481148291
 30
0.0
 40
3.0
100
AcDbArc
 50
24.2626983115001
 51
174.2430236062997
  0
ARC
  5
139
330
5A
100
AcDbEntity
  8
LAYER0001
 62
     7
100
AcDbCircle
 10
-1311.774724023005
 20
-605.5000331729291
 30
0.0
 40
79.0
100
AcDbArc
 50
204.2626983115
 51
335.7373016885
  0
ARC
  5
13A
330
5A
100
AcDbEntity
  8
LAYER0001
 62
     7
100
AcDbCircle
 10
-1311.774724023005
 20
-605.5000331729291
 30
0.0
 40
79.0
100
AcDbArc
 50
342.6188211354
 51
197.3811788646
  0
ARC
  5
13B
330
5A
100
AcDbEntity
  8
LAYER0001
  6
DASHED2
 62
     7
100
AcDbCircle
 10
-1311.774724023005
 20
-583.0000331729291
 30
0.0
 40
14.0
100
AcDbArc
 50
196.601549599
 51
163.398450401
  0
LINE
  5
13C
330
5A
100
AcDbEntity
  8
LAYER0001
  6
DASHED2
 62
     7
100
AcDbLine
 10
-1321.774724023005
 20
-579.0000331729291
 30
0.0
 11
-1328.774724023005
 21
-579.0000331729291
 31
0.0
  0
LINE
  5
13D
330
5A
100
AcDbEntity
  8
LAYER0001
  6
DASHED2
 62
     7
100
AcDbLine
 10
-1328.774724023005
 20
-579.0000331729291
 30
0.0
 11
-1328.774724023005
 21
-587.0000331729291
 31
0.0
  0
LINE
  5
13E
330
5A
100
AcDbEntity
  8
LAYER0001
  6
DASHED2
 62
     7
100
AcDbLine
 10
-1328.774724023005
 20
-587.0000331729291
 30
0.0
 11
-1321.774724023005
 21
-587.0000331729291
 31
0.0
  0
LINE
  5
13F
330
5A
100
AcDbEntity
  8
LAYER0001
  6
DASHED2
 62
     7
100
AcDbLine
 10
-1321.774724023005
 20
-587.0000331729291
 30
0.0
 11
-1321.774724023005
 21
-579.0000331729291
 31
0.0
  0
LINE
  5
140
330
5A
100
AcDbEntity
  8
LAYER0001
  6
DASHED2
 62
     7
100
AcDbLine
 10
-1232.774724023005
 20
-693.0000331729291
 30
0.0
 11
-1236.274724023005
 21
-681.0000331729291
 31
0.0
  0
LINE
  5
141
330
5A
100
AcDbEntity
  8
LAYER0001
  6
DASHED2
 62
     7
100
AcDbLine
 10
-1236.274724023005
 20
-681.0000331729291
 30
0.0
 11
-1236.274724023005
 21
-678.0000331729291
 31
0.0
  0
LINE
  5
142
330
5A
100
AcDbEntity
  8
LAYER0001
  6
DASHED2
 62
     7
100
AcDbLine
 10
-1247.274724023005
 20
-678.0000331729291
 30
0.0
 11
-1247.274724023005
 21
-681.0000331729291
 31
0.0
  0
LINE
  5
143
330
5A
100
AcDbEntity
  8
LAYER0001
  6
DASHED2
 62
     7
100
AcDbLine
 10
-1247.274724023005
 20
-681.0000331729291
 30
0.0
 11
-1250.774724023005
 21
-693.0000331729291
 31
0.0
  0
LINE
  5
144
330
5A
100
AcDbEntity
  8
LAYER0001
  6
DASHED2
 62
     7
100
AcDbLine
 10
-1236.274724023005
 20
-681.0000331729291
 30
0.0
 11
-1247.274724023005
 21
-681.0000331729291
 31
0.0
  0
LINE
  5
145
330
5A
100
AcDbEntity
  8
LAYER0001
  6
DASHED2
 62
     7
100
AcDbLine
 10
-1390.774724023005
 20
-693.0000331729291
 30
0.0
 11
-1387.274724023005
 21
-681.0000331729291
 31
0.0
  0
LINE
  5
146
330
5A
100
AcDbEntity
  8
LAYER0001
  6
DASHED2
 62
     7
100
AcDbLine
 10
-1387.274724023005
 20
-681.0000331729291
 30
0.0
 11
-1387.274724023005
 21
-678.0000331729291
 31
0.0
  0
LINE
  5
147
330
5A
100
AcDbEntity
  8
LAYER0001
  6
DASHED2
 62
     7
100
AcDbLine
 10
-1376.274724023005
 20
-678.0000331729291
 30
0.0
 11
-1376.274724023005
 21
-681.0000331729291
 31
0.0
  0
LINE
  5
148
330
5A
100
AcDbEntity
  8
LAYER0001
  6
DASHED2
 62
     7
100
AcDbLine
 10
-1376.274724023005
 20
-681.0000331729291
 30
0.0
 11
-1372.774724023005
 21
-693.0000331729291
 31
0.0
  0
LINE
  5
149
330
5A
100
AcDbEntity
  8
LAYER0001
  6
DASHED2
 62
     7
100
AcDbLine
 10
-1387.274724023005
 20
-681.0000331729291
 30
0.0
 11
-1376.274724023005
 21
-681.0000331729291
 31
0.0
  0
LINE
  5
14A
330
5A
100
AcDbEntity
  8
LAYER0001
  6
CENTER
 62
     9
100
AcDbLine
 10
-1351.774724023005
 20
-583.0000331729291
 30
0.0
 11
-1271.774724023005
 21
-583.0000331729291
 31
0.0
  0
LINE
  5
14B
330
5A
100
AcDbEntity
  8
LAYER0001
  6
CENTER
 62
     9
100
AcDbLine
 10
-1395.175195236905
 20
-605.5000331729291
 30
0.0
 11
-1228.374252809005
 21
-605.5000331729291
 31
0.0
  0
LINE
  5
14C
330
5A
100
AcDbEntity
  8
LAYER0001
  6
CENTER
 62
     9
100
AcDbLine
 10
-1241.774724023005
 20
-674.0000331729291
 30
0.0
 11
-1241.774724023005
 21
-697.0000331729291
 31
0.0
  0
LINE
  5
14D
330
5A
100
AcDbEntity
  8
LAYER0001
  6
CENTER
 62
     9
100
AcDbLine
 10
-1381.774724023005
 20
-674.0000331729291
 30
0.0
 11
-1381.774724023005
 21
-697.0000331729291
 31
0.0
  0
LINE
  5
14E
330
5A
100
AcDbEntity
  8
LAYER0001
  6
CENTER
 62
     9
100
AcDbLine
 10
-1311.774724023005
 20
-522.5000331729291
 30
0.0
 11
-1311.774724023005
 21
-1006.999971660935
 31
0.0
  0
ENDBLK
  5
5C
330
5A
100
AcDbEntity
  8
0
100
AcDbBlockEnd
  0
BLOCK
  5
5E
330
5D
100
AcDbEntity
  8
0
100
AcDbBlockBegin
  2
GROUP_6
 70
     0
 71
     0
 10
0.0
 20
0.0
 30
0.0
  3
GROUP_6
  1

  0
LINE
  5
14F
330
5D
100
AcDbEntity
  8
0
 62
     3
100
AcDbLine
 10
248.1964027068425
 20
-990.9999716609354
 30
0.0
 11
545.1961585662175
 21
-990.9999716609354
 31
0.0
  0
LINE
  5
150
330
5D
100
AcDbEntity
  8
0
 62
     3
100
AcDbLine
 10
248.1964027068425
 20
-754.9999873965617
 30
0.0
 11
528.1963416716862
 21
-754.9999873965617
 31
0.0
  0
LINE
  5
151
330
5D
100
AcDbEntity
  8
0
 62
     3
100
AcDbLine
 10
545.1961585662175
 20
-974.9999873965617
 30
0.0
 11
545.1961585662175
 21
-990.9999716609354
 31
0.0
  0
LINE
  5
152
330
5D
100
AcDbEntity
  8
0
 62
     3
100
AcDbLine
 10
1533.196187176447
 20
-927.1999996035929
 30
0.0
 11
1533.196187176447
 21
-936.200014862382
 31
0.0
  0
LINE
  5
153
330
5D
100
AcDbEntity
  8
0
 62
     3
100
AcDbLine
 10
248.1964027068425
 20
-974.9999873965617
 30
0.0
 11
545.1961585662175
 21
-974.9999873965617
 31
0.0
  0
LINE
  5
154
330
5D
100
AcDbEntity
  8
0
 62
     3
100
AcDbLine
 10
1408.196189083796
 20
-936.200014862382
 30
0.0
 11
1533.196187176447
 21
-936.200014862382
 31
0.0
  0
LINE
  5
155
330
5D
100
AcDbEntity
  8
0
 62
     3
100
AcDbLine
 10
1408.196189083796
 20
-927.1999996035929
 30
0.0
 11
1543.196187176447
 21
-927.1999996035929
 31
0.0
  0
LINE
  5
156
330
5D
100
AcDbEntity
  8
0
 62
     3
100
AcDbLine
 10
1408.196189083796
 20
-754.9999873965617
 30
0.0
 11
1408.196189083796
 21
-939.9999873965617
 31
0.0
  0
LINE
  5
157
330
5D
100
AcDbEntity
  8
0
 62
     3
100
AcDbLine
 10
1396.196219601374
 20
-754.9999873965617
 30
0.0
 11
1409.796225704889
 21
-754.9999873965617
 31
0.0
  0
LINE
  5
158
330
5D
100
AcDbEntity
  8
0
 62
     3
100
AcDbLine
 10
528.1963416716862
 20
-734.9999873965617
 30
0.0
 11
1396.196219601374
 21
-734.9999873965617
 31
0.0
  0
LINE
  5
159
330
5D
100
AcDbEntity
  8
0
 62
     3
100
AcDbLine
 10
1396.196219601374
 20
-734.9999873965617
 30
0.0
 11
1396.196219601374
 21
-939.9999873965617
 31
0.0
  0
LINE
  5
15A
330
5D
100
AcDbEntity
  8
0
 62
     3
100
AcDbLine
 10
528.1963416716862
 20
-734.9999873965617
 30
0.0
 11
528.1963416716862
 21
-974.9999873965617
 31
0.0
  0
LINE
  5
15B
330
5D
100
AcDbEntity
  8
0
 62
     3
100
AcDbLine
 10
540.1961585662175
 20
-734.9999873965617
 30
0.0
 11
540.1961585662175
 21
-974.9999873965617
 31
0.0
  0
LINE
  5
15C
330
5D
100
AcDbEntity
  8
0
 62
     3
100
AcDbLine
 10
160.3963538787175
 20
-665.3882652586005
 30
0.0
 11
285.3862111088872
 21
-741.8701987466152
 31
0.0
  0
LINE
  5
15D
330
5D
100
AcDbEntity
  8
0
 62
     3
100
AcDbLine
 10
217.4913245818425
 20
-893.4674175113078
 30
0.0
 11
255.596427120905
 21
-915.4674175113078
 31
0.0
  0
LINE
  5
15E
330
5D
100
AcDbEntity
  8
0
 62
     3
100
AcDbLine
 10
-287.2914147877476
 20
-391.7766014976405
 30
0.0
 11
103.3963538787175
 21
-630.8405450189732
 31
0.0
  0
LINE
  5
15F
330
5D
100
AcDbEntity
  8
0
 62
     3
100
AcDbLine
 10
-387.2686928062224
 20
-564.9423247766906
 30
0.0
 11
202.88817516778
 21
-884.7604167788859
 31
0.0
  0
LINE
  5
160
330
5D
100
AcDbEntity
  8
0
 62
     3
100
AcDbLine
 10
1409.796225704889
 20
-754.9999873965617
 30
0.0
 11
1409.796225704889
 21
-774.9999873965617
 31
0.0
  0
LINE
  5
161
330
5D
100
AcDbEntity
  8
0
 62
     3
100
AcDbLine
 10
1409.796225704889
 20
-774.9999873965617
 30
0.0
 11
1543.196187176447
 21
-774.9999873965617
 31
0.0
  0
LINE
  5
162
330
5D
100
AcDbEntity
  8
0
 62
     3
100
AcDbLine
 10
1543.196187176447
 20
-774.9999873965617
 30
0.0
 11
1543.196187176447
 21
-927.1999996035929
 31
0.0
  0
LINE
  5
163
330
5D
100
AcDbEntity
  8
0
 62
     3
100
AcDbLine
 10
-284.9774488992576
 20
-375.7686951508676
 30
0.0
 11
-284.9774476955778
 21
-245.768695150869
 31
0.0
  0
LINE
  5
164
330
5D
100
AcDbEntity
  8
0
 62
     3
100
AcDbLine
 10
-399.9774507435274
 20
-574.9545390860781
 30
0.0
 11
-284.9774488992576
 21
-375.7686951508676
 31
0.0
  0
ARC
  5
165
330
5D
100
AcDbEntity
  8
0
 62
     3
100
AcDbCircle
 10
-411.0494480460112
 20
-321.9129286648725
 30
0.0
 40
30.0
100
AcDbArc
 50
90.00000000001711
 51
180.0
  0
LINE
  5
166
330
5D
100
AcDbEntity
  8
0
 62
     3
100
AcDbLine
 10
-291.0494480460114
 20
-291.9129286648725
 30
0.0
 11
-411.0494480460112
 21
-291.9129286648725
 31
0.0
  0
LINE
  5
167
330
5D
100
AcDbEntity
  8
0
 62
     3
100
AcDbLine
 10
-405.2456030460113
 20
-571.9129286648725
 30
0.0
 11
-441.0494480460111
 21
-571.9129286648725
 31
0.0
  0
LINE
  5
168
330
5D
100
AcDbEntity
  8
0
 62
     3
100
AcDbLine
 10
-441.0494480460111
 20
-571.9129286648725
 30
0.0
 11
-441.0494480460111
 21
-321.9129286648725
 31
0.0
  0
LINE
  5
169
330
5D
100
AcDbEntity
  8
0
 62
     3
100
AcDbLine
 10
248.1964027068425
 20
-754.9999873965617
 30
0.0
 11
248.1964027068425
 21
-990.9999716609354
 31
0.0
  0
LINE
  5
16A
330
5D
100
AcDbEntity
  8
0
 62
     3
100
AcDbLine
 10
300.0913601001604
 20
-750.4000769301921
 30
0.0
 11
308.0586355543204
 21
-754.9999873965617
 31
0.0
  0
LINE
  5
16B
330
5D
100
AcDbEntity
  8
0
 62
     3
100
AcDbLine
 10
540.1961585662175
 20
-923.5
 30
0.0
 11
1396.196219601374
 21
-923.5
 31
0.0
  0
LINE
  5
16C
330
5D
100
AcDbEntity
  8
0
  6
DASHED2
 62
     3
100
AcDbLine
 10
338.1964027068425
 20
-772.399966034257
 30
0.0
 11
517.19628063653
 21
-772.399966034257
 31
0.0
  0
LINE
  5
16D
330
5D
100
AcDbEntity
  8
0
  6
DASHED2
 62
     3
100
AcDbLine
 10
338.1964027068425
 20
-937.6000087588664
 30
0.0
 11
517.19628063653
 21
-937.6000087588664
 31
0.0
  0
LINE
  5
16E
330
5D
100
AcDbEntity
  8
0
  6
DASHED2
 62
     3
100
AcDbLine
 10
338.1964027068425
 20
-772.399966034257
 30
0.0
 11
338.1964027068425
 21
-937.6000087588664
 31
0.0
  0
LINE
  5
16F
330
5D
100
AcDbEntity
  8
0
  6
DASHED2
 62
     3
100
AcDbLine
 10
308.0586355543204
 20
-754.9999873965617
 30
0.0
 11
338.1964027068425
 21
-772.4000423282023
 31
0.0
  0
LINE
  5
170
330
5D
100
AcDbEntity
  8
0
  6
DASHED2
 62
     3
100
AcDbLine
 10
255.5965453109835
 20
-915.4674857481114
 30
0.0
 11
338.19628063653
 21
-772.399981293046
 31
0.0
  0
LINE
  5
171
330
5D
100
AcDbEntity
  8
0
  6
DASHED2
 62
     3
100
AcDbLine
 10
338.1964027068425
 20
-937.6000087588664
 30
0.0
 11
255.596427120905
 21
-915.4674175113078
 31
0.0
  0
LINE
  5
172
330
5D
100
AcDbEntity
  8
0
  6
DASHED2
 62
     3
100
AcDbLine
 10
160.3963538787175
 20
-665.3068613460181
 30
0.0
 11
103.3963538787175
 21
-630.8125652166193
 31
0.0
  0
LINE
  5
173
330
5D
100
AcDbEntity
  8
0
 62
     7
100
AcDbLine
 10
1377.19628063653
 20
-939.9999873965617
 30
0.0
 11
1427.19628063653
 21
-939.9999873965617
 31
0.0
  0
LINE
  5
174
330
5D
100
AcDbEntity
  8
0
 62
     7
100
AcDbLine
 10
1387.19628063653
 20
-951.9999568789835
 30
0.0
 11
1417.19628063653
 21
-951.9999568789835
 31
0.0
  0
LINE
  5
175
330
5D
100
AcDbEntity
  8
0
 62
     7
100
AcDbLine
 10
1377.19628063653
 20
-939.9999873965617
 30
0.0
 11
1377.19628063653
 21
-946.2264888614054
 31
0.0
  0
LINE
  5
176
330
5D
100
AcDbEntity
  8
0
 62
     7
100
AcDbLine
 10
1377.196158566218
 20
-946.2264354556437
 30
0.0
 11
1387.196234860163
 21
-951.9999797671671
 31
0.0
  0
LINE
  5
177
330
5D
100
AcDbEntity
  8
0
 62
     7
100
AcDbLine
 10
1427.19628063653
 20
-939.9999873965617
 30
0.0
 11
1427.19628063653
 21
-946.2264888614054
 31
0.0
  0
LINE
  5
178
330
5D
100
AcDbEntity
  8
0
 62
     7
100
AcDbLine
 10
1427.196242489557
 20
-946.2264736026164
 30
0.0
 11
1417.196173825007
 21
-952.0000179141398
 31
0.0
  0
LINE
  5
179
330
5D
100
AcDbEntity
  8
0
 62
     7
100
AcDbLine
 10
248.1964027068425
 20
-705.0000331729289
 30
0.0
 11
423.1964027068425
 21
-705.0000331729289
 31
0.0
  0
LINE
  5
17A
330
5D
100
AcDbEntity
  8
0
 62
     7
100
AcDbLine
 10
248.1964027068425
 20
-693.0000331729289
 30
0.0
 11
423.1964027068425
 21
-693.0000331729289
 31
0.0
  0
LINE
  5
17B
330
5D
100
AcDbEntity
  8
0
 62
     7
100
AcDbLine
 10
248.1964027068425
 20
-693.0000331729289
 30
0.0
 11
248.1964027068425
 21
-705.0000331729289
 31
0.0
  0
LINE
  5
17C
330
5D
100
AcDbEntity
  8
0
 62
     7
100
AcDbLine
 10
197.340567745905
 20
-890.3690364688273
 30
0.0
 11
213.7950355193425
 21
-899.8690364688273
 31
0.0
  0
LINE
  5
17D
330
5D
100
AcDbEntity
  8
0
 62
     7
100
AcDbLine
 10
194.340567745905
 20
-895.5651882022257
 30
0.0
 11
197.340567745905
 21
-890.3690364688273
 31
0.0
  0
LINE
  5
17E
330
5D
100
AcDbEntity
  8
0
 62
     7
100
AcDbLine
 10
194.340567745905
 20
-895.5651882022257
 30
0.0
 11
210.7950355193425
 21
-905.0651882022257
 31
0.0
  0
LINE
  5
17F
330
5D
100
AcDbEntity
  8
0
 62
     7
100
AcDbLine
 10
289.0687171599675
 20
-735.4913966983195
 30
0.0
 11
303.7913685033318
 21
-743.9914791482237
 31
0.0
  0
LINE
  5
180
330
5D
100
AcDbEntity
  8
0
 62
     7
100
AcDbLine
 10
356.19628063653
 20
-990.9999716609354
 30
0.0
 11
356.19628063653
 21
-1001.226488861405
 31
0.0
  0
LINE
  5
181
330
5D
100
AcDbEntity
  8
0
 62
     7
100
AcDbLine
 10
306.19628063653
 20
-990.9999716609354
 30
0.0
 11
306.19628063653
 21
-1001.226488861405
 31
0.0
  0
LINE
  5
182
330
5D
100
AcDbEntity
  8
0
 62
     7
100
AcDbLine
 10
316.19628063653
 20
-1006.999956878984
 30
0.0
 11
346.19628063653
 21
-1006.999956878984
 31
0.0
  0
LINE
  5
183
330
5D
100
AcDbEntity
  8
0
 62
     7
100
AcDbLine
 10
306.1961585662175
 20
-1001.226380142533
 30
0.0
 11
316.19628063653
 21
-1007.000000748002
 31
0.0
  0
LINE
  5
184
330
5D
100
AcDbEntity
  8
0
 62
     7
100
AcDbLine
 10
356.1961585662175
 20
-1001.22650984224
 30
0.0
 11
346.19628063653
 21
-1006.99994734224
 31
0.0
  0
LINE
  5
185
330
5D
100
AcDbEntity
  8
0
 62
     7
100
AcDbLine
 10
403.1964293707915
 20
-459.9999847738791
 30
0.0
 11
403.1964127604624
 21
-649.9999847738782
 31
0.0
  0
LINE
  5
186
330
5D
100
AcDbEntity
  8
0
 62
     7
100
AcDbLine
 10
463.1964293707897
 20
-459.9999900192461
 30
0.0
 11
463.1964035810702
 21
-754.9999873965617
 31
0.0
  0
LINE
  5
187
330
5D
100
AcDbEntity
  8
0
 62
     7
100
AcDbLine
 10
403.1964127604624
 20
-649.9999847738782
 30
0.0
 11
423.1964127604624
 21
-649.9999865223344
 31
0.0
  0
LINE
  5
188
330
5D
100
AcDbEntity
  8
0
 62
     7
100
AcDbLine
 10
403.1964293707915
 20
-459.9999847738791
 30
0.0
 11
463.1964293707897
 21
-459.9999900192461
 31
0.0
  0
LINE
  5
189
330
5D
100
AcDbEntity
  8
0
 62
     7
100
AcDbLine
 10
423.1964127604624
 20
-649.9999865223344
 30
0.0
 11
423.1964046301407
 21
-743.00001791414
 31
0.0
  0
LINE
  5
18A
330
5D
100
AcDbEntity
  8
0
 62
     7
100
AcDbLine
 10
-284.9774476955778
 20
-245.768695150869
 30
0.0
 11
-290.9774476955796
 21
-245.7686950953134
 31
0.0
  0
LINE
  5
18B
330
5D
100
AcDbEntity
  8
0
 62
     7
100
AcDbLine
 10
-405.1736057157492
 20
-571.9545390379667
 30
0.0
 11
-290.9774488843692
 21
-374.1610000953142
 31
0.0
  0
LINE
  5
18C
330
5D
100
AcDbEntity
  8
0
 62
     7
100
AcDbLine
 10
-290.9774476955796
 20
-245.7686950953134
 30
0.0
 11
-290.9774488843692
 21
-374.1610000953142
 31
0.0
  0
LINE
  5
18D
330
5D
100
AcDbEntity
  8
0
 62
     7
100
AcDbLine
 10
-284.9774478344631
 20
-350.7686163034864
 30
0.0
 11
-278.9773257641506
 21
-350.7686163034864
 31
0.0
  0
LINE
  5
18E
330
5D
100
AcDbEntity
  8
0
 62
     7
100
AcDbLine
 10
-284.9774478344631
 20
-250.7686163034864
 30
0.0
 11
-278.9773257641506
 21
-250.7686163034864
 31
0.0
  0
LINE
  5
18F
330
5D
100
AcDbEntity
  8
0
 62
     7
100
AcDbLine
 10
-278.9773257641506
 20
-250.7686163034864
 30
0.0
 11
-278.9773257641506
 21
-350.7686163034864
 31
0.0
  0
LINE
  5
190
330
5D
100
AcDbEntity
  8
0
 62
     7
100
AcDbLine
 10
-394.7812791522755
 20
-577.9545058851842
 30
0.0
 11
-405.2456030460113
 21
-571.9129286648725
 31
0.0
  0
LINE
  5
191
330
5D
100
AcDbEntity
  8
0
 62
     7
100
AcDbLine
 10
280.1964027068425
 20
-742.9999873965617
 30
0.0
 11
248.1964027068425
 21
-742.9999873965617
 31
0.0
  0
LINE
  5
192
330
5D
100
AcDbEntity
  8
0
 62
     7
100
AcDbLine
 10
280.1964027068425
 20
-754.9999873965617
 30
0.0
 11
280.1964027068425
 21
-742.9999873965617
 31
0.0
  0
LINE
  5
193
330
5D
100
AcDbEntity
  8
0
 62
     7
100
AcDbLine
 10
391.1964027068425
 20
-742.9999873965617
 30
0.0
 11
391.1964027068425
 21
-754.9999873965617
 31
0.0
  0
LINE
  5
194
330
5D
100
AcDbEntity
  8
0
 62
     7
100
AcDbLine
 10
423.1964027068425
 20
-742.9999873965617
 30
0.0
 11
391.1964027068425
 21
-742.9999873965617
 31
0.0
  0
LINE
  5
195
330
5D
100
AcDbEntity
  8
0
 62
     7
100
AcDbLine
 10
423.1964027068425
 20
-742.9999873965617
 30
0.0
 11
423.1964027068425
 21
-754.9999873965617
 31
0.0
  0
LINE
  5
196
330
5D
100
AcDbEntity
  8
0
 62
     7
100
AcDbLine
 10
-318.9774478344631
 20
-250.7686163034864
 30
0.0
 11
-360.1217601958491
 21
-291.9129286648725
 31
0.0
  0
LINE
  5
197
330
5D
100
AcDbEntity
  8
0
 62
     7
100
AcDbLine
 10
-278.9774478344631
 20
-250.7686163034864
 30
0.0
 11
-318.9774478344631
 21
-250.7686163034864
 31
0.0
  0
LINE
  5
198
330
5D
100
AcDbEntity
  8
0
 62
     7
100
AcDbLine
 10
210.7952796599675
 20
-905.0653102725382
 30
0.0
 11
248.1964027068425
 21
-840.2847130190556
 31
0.0
  0
LINE
  5
199
330
5D
100
AcDbEntity
  8
0
 62
     7
100
AcDbLine
 10
208.59911266778
 20
-896.8691585391398
 30
0.0
 11
248.1964027068425
 21
-828.284703656611
 31
0.0
  0
LINE
  5
19A
330
5D
100
AcDbEntity
  8
0
 62
     7
100
AcDbLine
 10
204.26903454278
 20
-894.3691585391398
 30
0.0
 11
248.1964027068425
 21
-818.2846333335647
 31
0.0
  0
LINE
  5
19B
330
5D
100
AcDbEntity
  8
0
 62
     7
100
AcDbLine
 10
284.7337660365853
 20
-754.9999873965617
 30
0.0
 11
294.2649695351689
 21
-738.4914387824261
 31
0.0
  0
LINE
  5
19C
330
5D
100
AcDbEntity
  8
0
 62
     7
100
AcDbLine
 10
290.5073924223676
 20
-754.9999873965617
 30
0.0
 11
298.5952091770892
 21
-740.9914907856786
 31
0.0
  0
LINE
  5
19D
330
5D
100
AcDbEntity
  8
0
 62
     7
100
AcDbLine
 10
297.4355985812583
 20
-754.9999873965617
 30
0.0
 11
303.7913659484465
 21
-743.9914835734379
 31
0.0
  0
LINE
  5
19E
330
5D
100
AcDbEntity
  8
0
 62
     7
100
AcDbLine
 10
199.07274548028
 20
-891.3690975039835
 30
0.0
 11
248.1964027068425
 21
-806.2844576328356
 31
0.0
  0
LINE
  5
19F
330
5D
100
AcDbEntity
  8
0
 62
     7
100
AcDbLine
 10
280.1964027068425
 20
-750.8588515278306
 30
0.0
 11
289.0687868266588
 21
-735.4914369204169
 31
0.0
  0
LINE
  5
1A0
330
5D
100
AcDbEntity
  8
0
  6
DASHED2
 62
     7
100
AcDbLine
 10
523.1964027068425
 20
-754.9999873965617
 30
0.0
 11
523.1964027068425
 21
-954.9999873965617
 31
0.0
  0
LINE
  5
1A1
330
5D
100
AcDbEntity
  8
0
  6
DASHED2
 62
     7
100
AcDbLine
 10
523.1964027068425
 20
-954.9999873965617
 30
0.0
 11
528.1963416716862
 21
-954.9999873965617
 31
0.0
  0
LINE
  5
1A2
330
5D
100
AcDbEntity
  8
0
  6
DASHED2
 62
     7
100
AcDbLine
 10
517.19628063653
 20
-954.9999873965617
 30
0.0
 11
523.1964027068425
 21
-954.9999873965617
 31
0.0
  0
LINE
  5
1A3
330
5D
100
AcDbEntity
  8
0
  6
DASHED2
 62
     7
100
AcDbLine
 10
517.19628063653
 20
-754.9999873965617
 30
0.0
 11
517.19628063653
 21
-772.399966034257
 31
0.0
  0
LINE
  5
1A4
330
5D
100
AcDbEntity
  8
0
  6
DASHED2
 62
     7
100
AcDbLine
 10
517.19628063653
 20
-937.6000087588664
 30
0.0
 11
517.19628063653
 21
-954.9999873965617
 31
0.0
  0
LINE
  5
1A5
330
5D
100
AcDbEntity
  8
0
  6
DASHED2
 62
     7
100
AcDbLine
 10
-290.9774478344631
 20
-250.7686163034864
 30
0.0
 11
-284.9774478344631
 21
-250.7686163034864
 31
0.0
  0
LINE
  5
1A6
330
5D
100
AcDbEntity
  8
0
  6
DASHED2
 62
     7
100
AcDbLine
 10
-388.9774478344631
 20
-320.7686163034864
 30
0.0
 11
-388.9774478344631
 21
-350.7686163034864
 31
0.0
  0
LINE
  5
1A7
330
5D
100
AcDbEntity
  8
0
  6
DASHED2
 62
     7
100
AcDbLine
 10
-388.9774478344631
 20
-350.7686163034864
 30
0.0
 11
-278.9774478344631
 21
-350.7686163034864
 31
0.0
  0
LINE
  5
1A8
330
5D
100
AcDbEntity
  8
0
  6
DASHED2
 62
     7
100
AcDbLine
 10
-388.9774478344631
 20
-320.7686163034864
 30
0.0
 11
-360.1217601958492
 21
-291.9129286648725
 31
0.0
  0
LINE
  5
1A9
330
5D
100
AcDbEntity
  8
0
  6
CENTER
 62
     9
100
AcDbLine
 10
410.6964027068425
 20
-683.735332071001
 30
0.0
 11
410.6964027068425
 21
-765.0583623965617
 31
0.0
  0
LINE
  5
1AA
330
5D
100
AcDbEntity
  8
0
  6
CENTER
 62
     9
100
AcDbLine
 10
1503.796164669733
 20
-818.703909152627
 30
0.0
 11
1503.796164669733
 21
-904.4846217959757
 31
0.0
  0
LINE
  5
1AB
330
5D
100
AcDbEntity
  8
0
  6
CENTER
 62
     9
100
AcDbLine
 10
1457.746359982233
 20
-818.703909152627
 30
0.0
 11
1457.746359982233
 21
-904.4846217959757
 31
0.0
  0
LINE
  5
1AC
330
5D
100
AcDbEntity
  8
0
  6
CENTER
 62
     9
100
AcDbLine
 10
436.8963538787175
 20
-920.5784982564629
 30
0.0
 11
436.8963538787175
 21
-494.5686054313758
 31
0.0
  0
LINE
  5
1AD
330
5D
100
AcDbEntity
  8
0
  6
CENTER
 62
     9
100
AcDbLine
 10
-481.2683959448577
 20
-395.3642903247499
 30
0.0
 11
316.1753072935225
 21
-855.0
 31
0.0
  0
LINE
  5
1AE
330
5D
100
AcDbEntity
  8
0
  6
CENTER
 62
     9
100
AcDbLine
 10
383.8350745818425
 20
-864.9999873965617
 30
0.0
 11
1532.693727926661
 21
-864.9999873965617
 31
0.0
  0
LINE
  5
1AF
330
5D
100
AcDbEntity
  8
0
  6
CENTER
 62
     9
100
AcDbLine
 10
260.6964027068425
 20
-683.735332071001
 30
0.0
 11
260.6964027068425
 21
-765.0583623965617
 31
0.0
  0
LINE
  5
1B0
330
5D
100
AcDbEntity
  8
0
  6
CENTER
 62
     9
100
AcDbLine
 10
-387.2686928062223
 20
-855.0
 30
0.0
 11
1532.693727926661
 21
-855.0
 31
0.0
  0
LINE
  5
1B1
330
5D
100
AcDbEntity
  8
0
 62
     7
100
AcDbLine
 10
-284.9774488992576
 20
-375.7686951508676
 30
0.0
 11
-279.7812964904396
 21
-378.7686951749233
 31
0.0
  0
LINE
  5
1B2
330
5D
100
AcDbEntity
  8
0
 62
     7
100
AcDbLine
 10
-394.7812791522754
 20
-577.9545058851843
 30
0.0
 11
-279.7812964904396
 21
-378.7686951749233
 31
0.0
  0
LINE
  5
1B3
330
5D
100
AcDbEntity
  8
0
 62
     7
100
AcDbLine
 10
248.1964027068425
 20
-742.9999873965617
 30
0.0
 11
248.1964027068425
 21
-754.9999873965617
 31
0.0
  0
LINE
  5
1B4
330
5D
100
AcDbEntity
  8
0
  6
DASHED2
 62
     7
100
AcDbLine
 10
248.1964027068425
 20
-806.2844576328356
 30
0.0
 11
280.1964027068425
 21
-750.8588515278306
 31
0.0
  0
LINE
  5
1B5
330
5D
100
AcDbEntity
  8
0
  6
DASHED2
 62
     7
100
AcDbLine
 10
248.1964027068425
 20
-818.2846333335647
 30
0.0
 11
284.7337660365853
 21
-754.9999873965617
 31
0.0
  0
LINE
  5
1B6
330
5D
100
AcDbEntity
  8
0
  6
DASHED2
 62
     7
100
AcDbLine
 10
290.5073924223676
 20
-754.9999873965617
 30
0.0
 11
248.1964027068425
 21
-828.284703656611
 31
0.0
  0
LINE
  5
1B7
330
5D
100
AcDbEntity
  8
0
  6
DASHED2
 62
     7
100
AcDbLine
 10
248.1964027068425
 20
-840.2847130190556
 30
0.0
 11
297.4355985812583
 21
-754.9999873965617
 31
0.0
  0
LINE
  5
1B8
330
5D
100
AcDbEntity
  8
0
  6
DASHED2
 62
     7
100
AcDbLine
 10
1396.196219601374
 20
-917.5
 30
0.0
 11
540.1961585662175
 21
-917.5
 31
0.0
  0
LINE
  5
1B9
330
5D
100
AcDbEntity
  8
0
  6
DIVIDE
 62
     1
100
AcDbLine
 10
404.9819490837953
 20
-799.7499999999996
 30
0.0
 11
444.9819490837955
 21
-910.2500000000003
 31
0.0
  0
LINE
  5
1BA
330
5D
100
AcDbEntity
  8
0
  6
DIVIDE
 62
     1
100
AcDbLine
 10
324.9819490837956
 20
-799.7499999999996
 30
0.0
 11
364.9819490837958
 21
-910.2500000000003
 31
0.0
  0
LINE
  5
1BB
330
5D
100
AcDbEntity
  8
0
  6
DIVIDE
 62
     1
100
AcDbLine
 10
484.9819490837953
 20
-799.7499999999996
 30
0.0
 11
524.9819490837955
 21
-910.2500000000003
 31
0.0
  0
LINE
  5
1BC
330
5D
100
AcDbEntity
  8
0
  6
DIVIDE
 62
     1
100
AcDbLine
 10
564.9819490837953
 20
-799.7499999999996
 30
0.0
 11
604.9819490837955
 21
-910.2500000000003
 31
0.0
  0
LINE
  5
1BD
330
5D
100
AcDbEntity
  8
0
  6
DIVIDE
 62
     1
100
AcDbLine
 10
644.9819490837953
 20
-799.7499999999996
 30
0.0
 11
684.9819490837955
 21
-910.2500000000003
 31
0.0
  0
LINE
  5
1BE
330
5D
100
AcDbEntity
  8
0
  6
DIVIDE
 62
     1
100
AcDbLine
 10
724.9819490837948
 20
-799.7499999999996
 30
0.0
 11
764.981949083795
 21
-910.2500000000003
 31
0.0
  0
LINE
  5
1BF
330
5D
100
AcDbEntity
  8
0
  6
DIVIDE
 62
     1
100
AcDbLine
 10
804.9819490837944
 20
-799.7499999999996
 30
0.0
 11
844.9819490837946
 21
-910.2500000000003
 31
0.0
  0
LINE
  5
1C0
330
5D
100
AcDbEntity
  8
0
  6
DIVIDE
 62
     1
100
AcDbLine
 10
884.9819490837945
 20
-799.7499999999996
 30
0.0
 11
924.9819490837948
 21
-910.2500000000003
 31
0.0
  0
LINE
  5
1C1
330
5D
100
AcDbEntity
  8
0
  6
DIVIDE
 62
     1
100
AcDbLine
 10
964.9819490837944
 20
-799.7499999999996
 30
0.0
 11
1004.981949083795
 21
-910.2500000000003
 31
0.0
  0
LINE
  5
1C2
330
5D
100
AcDbEntity
  8
0
  6
DIVIDE
 62
     1
100
AcDbLine
 10
1044.981949083795
 20
-799.7499999999996
 30
0.0
 11
1084.981949083795
 21
-910.2500000000003
 31
0.0
  0
LINE
  5
1C3
330
5D
100
AcDbEntity
  8
0
  6
DIVIDE
 62
     1
100
AcDbLine
 10
1124.981949083795
 20
-799.7499999999996
 30
0.0
 11
1164.981949083795
 21
-910.2500000000003
 31
0.0
  0
LINE
  5
1C4
330
5D
100
AcDbEntity
  8
0
  6
DIVIDE
 62
     1
100
AcDbLine
 10
1204.981949083795
 20
-799.7499999999996
 30
0.0
 11
1244.981949083796
 21
-910.2500000000003
 31
0.0
  0
LINE
  5
1C5
330
5D
100
AcDbEntity
  8
0
  6
DIVIDE
 62
     1
100
AcDbLine
 10
1284.981949083795
 20
-799.7499999999996
 30
0.0
 11
1324.981949083795
 21
-910.2500000000003
 31
0.0
  0
LINE
  5
1C6
330
5D
100
AcDbEntity
  8
0
  6
DIVIDE
 62
     1
100
AcDbLine
 10
364.9819490837958
 20
-910.2500000000003
 30
0.0
 11
404.9819490837953
 21
-799.7499999999996
 31
0.0
  0
LINE
  5
1C7
330
5D
100
AcDbEntity
  8
0
  6
DIVIDE
 62
     1
100
AcDbLine
 10
444.9819490837955
 20
-910.2500000000003
 30
0.0
 11
484.981949083795
 21
-799.7499999999996
 31
0.0
  0
LINE
  5
1C8
330
5D
100
AcDbEntity
  8
0
  6
DIVIDE
 62
     1
100
AcDbLine
 10
524.9819490837955
 20
-910.2500000000003
 30
0.0
 11
564.981949083795
 21
-799.7499999999996
 31
0.0
  0
LINE
  5
1C9
330
5D
100
AcDbEntity
  8
0
  6
DIVIDE
 62
     1
100
AcDbLine
 10
604.9819490837955
 20
-910.2500000000003
 30
0.0
 11
644.981949083795
 21
-799.7499999999996
 31
0.0
  0
LINE
  5
1CA
330
5D
100
AcDbEntity
  8
0
  6
DIVIDE
 62
     1
100
AcDbLine
 10
684.9819490837955
 20
-910.2500000000003
 30
0.0
 11
724.981949083795
 21
-799.7499999999996
 31
0.0
  0
LINE
  5
1CB
330
5D
100
AcDbEntity
  8
0
  6
DIVIDE
 62
     1
100
AcDbLine
 10
764.981949083795
 20
-910.2500000000003
 30
0.0
 11
804.9819490837946
 21
-799.7499999999996
 31
0.0
  0
LINE
  5
1CC
330
5D
100
AcDbEntity
  8
0
  6
DIVIDE
 62
     1
100
AcDbLine
 10
844.9819490837946
 20
-910.2500000000003
 30
0.0
 11
884.9819490837941
 21
-799.7499999999996
 31
0.0
  0
LINE
  5
1CD
330
5D
100
AcDbEntity
  8
0
  6
DIVIDE
 62
     1
100
AcDbLine
 10
924.9819490837948
 20
-910.2500000000003
 30
0.0
 11
964.9819490837941
 21
-799.7499999999996
 31
0.0
  0
LINE
  5
1CE
330
5D
100
AcDbEntity
  8
0
  6
DIVIDE
 62
     1
100
AcDbLine
 10
1004.981949083795
 20
-910.2500000000003
 30
0.0
 11
1044.981949083794
 21
-799.7499999999996
 31
0.0
  0
LINE
  5
1CF
330
5D
100
AcDbEntity
  8
0
  6
DIVIDE
 62
     1
100
AcDbLine
 10
1084.981949083795
 20
-910.2500000000003
 30
0.0
 11
1124.981949083794
 21
-799.7499999999996
 31
0.0
  0
LINE
  5
1D0
330
5D
100
AcDbEntity
  8
0
  6
DIVIDE
 62
     1
100
AcDbLine
 10
1164.981949083795
 20
-910.2500000000003
 30
0.0
 11
1204.981949083794
 21
-799.7499999999996
 31
0.0
  0
LINE
  5
1D1
330
5D
100
AcDbEntity
  8
0
  6
DIVIDE
 62
     1
100
AcDbLine
 10
1244.981949083796
 20
-910.2500000000003
 30
0.0
 11
1284.981949083795
 21
-799.7499999999996
 31
0.0
  0
ENDBLK
  5
5F
330
5D
100
AcDbEntity
  8
0
100
AcDbBlockEnd
  0
BLOCK
  5
61
330
60
100
AcDbEntity
  8
0
100
AcDbBlockBegin
  2
GROUP_7
 70
     0
 71
     0
 10
0.0
 20
0.0
 30
0.0
  3
GROUP_7
  1

  0
ENDBLK
  5
62
330
60
100
AcDbEntity
  8
0
100
AcDbBlockEnd
  0
BLOCK
  5
64
330
63
100
AcDbEntity
  8
0
100
AcDbBlockBegin
  2
GROUP_8
 70
     0
 71
     0
 10
0.0
 20
0.0
 30
0.0
  3
GROUP_8
  1

  0
LINE
  5
1D5
330
63
100
AcDbEntity
  8
0
  6
DIVIDE
 62
     2
100
AcDbLine
 10
1516.196219601374
 20
-714.9999873965617
 30
0.0
 11
1516.196219601374
 21
-732.702007148851
 31
0.0
  0
LINE
  5
1D6
330
63
100
AcDbEntity
  8
0
  6
DIVIDE
 62
     2
100
AcDbLine
 10
896.1962196013737
 20
-704.9999873965616
 30
0.0
 11
896.1962196013737
 21
-781.9999873965617
 31
0.0
  0
LINE
  5
1D7
330
63
100
AcDbEntity
  8
0
  6
DIVIDE
 62
     2
100
AcDbLine
 10
1296.196219601374
 20
-704.9999873965617
 30
0.0
 11
896.1962196013737
 21
-704.9999873965616
 31
0.0
  0
LINE
  5
1D8
330
63
100
AcDbEntity
  8
0
  6
DIVIDE
 62
     2
100
AcDbLine
 10
1516.196219601374
 20
-714.9999873965617
 30
0.0
 11
1296.196219601374
 21
-714.9999873965617
 31
0.0
  0
LINE
  5
1D9
330
63
100
AcDbEntity
  8
0
  6
DIVIDE
 62
     2
100
AcDbLine
 10
1326.196219601374
 20
-794.9999873965617
 30
0.0
 11
1046.196219601374
 21
-794.9999873965617
 31
0.0
  0
LINE
  5
1DA
330
63
100
AcDbEntity
  8
0
  6
DIVIDE
 62
     2
100
AcDbLine
 10
1046.196219601374
 20
-781.9999873965617
 30
0.0
 11
1046.196219601374
 21
-794.9999873965617
 31
0.0
  0
LINE
  5
1DB
330
63
100
AcDbEntity
  8
0
  6
DIVIDE
 62
     2
100
AcDbLine
 10
896.1962196013737
 20
-781.9999873965617
 30
0.0
 11
1046.196219601374
 21
-781.9999873965617
 31
0.0
  0
LINE
  5
1DC
330
63
100
AcDbEntity
  8
0
  6
DIVIDE
 62
     2
100
AcDbLine
 10
1326.196219601374
 20
-794.9999873965617
 30
0.0
 11
1396.196219601374
 21
-754.9999873965617
 31
0.0
  0
LINE
  5
1DD
330
63
100
AcDbEntity
  8
0
  6
DIVIDE
 62
     2
100
AcDbLine
 10
1396.196219601374
 20
-754.9999873965617
 30
0.0
 11
1516.196219601374
 21
-732.702007148851
 31
0.0
  0
LINE
  5
1DE
330
63
100
AcDbEntity
  8
0
  6
DIVIDE
 62
     2
100
AcDbLine
 10
1516.196219601374
 20
-732.702007148851
 30
0.0
 11
1516.196219601374
 21
-714.9999873965617
 31
0.0
  0
LINE
  5
1DF
330
63
100
AcDbEntity
  8
0
  6
DIVIDE
 62
     2
100
AcDbLine
 10
1296.196219601374
 20
-704.9999873965617
 30
0.0
 11
1296.196219601374
 21
-714.9999873965617
 31
0.0
  0
LINE
  5
1E0
330
63
100
AcDbEntity
  8
0
  6
DIVIDE
 62
     2
100
AcDbLine
 10
1516.196219601374
 20
-732.702007148851
 30
0.0
 11
896.1962196013737
 21
-732.7020071488507
 31
0.0
  0
LINE
  5
1E1
330
63
100
AcDbEntity
  8
0
  6
DIVIDE
 62
     2
100
AcDbLine
 10
1396.196219601374
 20
-754.9999873965617
 30
0.0
 11
896.1962196013737
 21
-754.9999873965617
 31
0.0
  0
ENDBLK
  5
65
330
63
100
AcDbEntity
  8
0
100
AcDbBlockEnd
  0
BLOCK
  5
67
330
66
100
AcDbEntity
  8
0
100
AcDbBlockBegin
  2
GROUP_9
 70
     0
 71
     0
 10
0.0
 20
0.0
 30
0.0
  3
GROUP_9
  1

  0
LINE
  5
1E2
330
66
100
AcDbEntity
  8
LAYER0001
 62
     7
100
AcDbLine
 10
381.2441561869175
 20
-529.3991489061289
 30
0.0
 11
319.3963538787175
 21
-526.5000331729289
 31
0.0
  0
ARC
  5
1E3
330
66
100
AcDbEntity
  8
LAYER0001
 62
     7
100
AcDbCircle
 10
381.1036854280173
 20
-532.3958584292288
 30
0.0
 40
3.0
100
AcDbArc
 50
15.94539590089974
 51
87.31622484050001
  0
LINE
  5
1E4
330
66
100
AcDbEntity
  8
LAYER0001
 62
     7
100
AcDbLine
 10
388.1827916945174
 20
-546.2525655282288
 30
0.0
 11
383.9882572709175
 21
-531.5716950455288
 31
0.0
  0
ARC
  5
1E5
330
66
100
AcDbEntity
  8
LAYER0001
 62
     7
100
AcDbCircle
 10
391.0673635374174
 20
-545.4284021445288
 30
0.0
 40
3.0
100
AcDbArc
 50
195.9453959008997
 51
225.0
  0
LINE
  5
1E6
330
66
100
AcDbEntity
  8
LAYER0001
 62
     7
100
AcDbLine
 10
393.5176742223175
 20
-552.1213535165289
 30
0.0
 11
388.9460431939174
 21
-547.5497224881289
 31
0.0
  0
ARC
  5
1E7
330
66
100
AcDbEntity
  8
LAYER0001
 62
     7
100
AcDbCircle
 10
391.3963538787175
 20
-554.2426738600288
 30
0.0
 40
3.0
100
AcDbArc
 50
0.0
 51
45.0
  0
LINE
  5
1E8
330
66
100
AcDbEntity
  8
LAYER0001
 62
     7
100
AcDbLine
 10
394.3963538787175
 20
-611.7573924858289
 30
0.0
 11
394.3963538787175
 21
-554.2426738600288
 31
0.0
  0
ARC
  5
1E9
330
66
100
AcDbEntity
  8
LAYER0001
 62
     7
100
AcDbCircle
 10
391.3963538787175
 20
-611.7573924858289
 30
0.0
 40
3.0
100
AcDbArc
 50
315.0000000000003
 51
360.0
  0
LINE
  5
1EA
330
66
100
AcDbEntity
  8
LAYER0001
 62
     7
100
AcDbLine
 10
389.2750335352175
 20
-618.1213535165289
 30
0.0
 11
393.5176742223175
 21
-613.8787128294289
 31
0.0
  0
ARC
  5
1EB
330
66
100
AcDbEntity
  8
LAYER0001
 62
     7
100
AcDbCircle
 10
391.3963538787175
 20
-620.2426738600288
 30
0.0
 40
3.0
100
AcDbArc
 50
135.0000000000004
 51
180.0
  0
ARC
  5
1EC
330
66
100
AcDbEntity
  8
LAYER0001
 62
     7
100
AcDbCircle
 10
385.3963538787175
 20
-663.5798683390289
 30
0.0
 40
3.0
100
AcDbArc
 50
344.0546040991002
 51
360.0
  0
LINE
  5
1ED
330
66
100
AcDbEntity
  8
LAYER0001
 62
     7
100
AcDbLine
 10
394.3963538787175
 20
-693.0000331729289
 30
0.0
 11
274.3963538787175
 21
-693.0000331729289
 31
0.0
  0
LINE
  5
1EE
330
66
100
AcDbEntity
  8
LAYER0001
 62
     7
100
AcDbLine
 10
274.3963538787175
 20
-680.8970994973288
 30
0.0
 11
274.3963538787175
 21
-693.0000331729289
 31
0.0
  0
LINE
  5
1EF
330
66
100
AcDbEntity
  8
LAYER0001
 62
     7
100
AcDbLine
 10
394.3963538787175
 20
-680.8970994973288
 30
0.0
 11
394.3963538787175
 21
-693.0000331729289
 31
0.0
  0
ARC
  5
1F0
330
66
100
AcDbEntity
  8
LAYER0001
 62
     7
100
AcDbCircle
 10
321.3963538787175
 20
-637.2434634752289
 30
0.0
 40
3.0
100
AcDbArc
 50
331.6914524756003
 51
360.0
  0
LINE
  5
1F1
330
66
100
AcDbEntity
  8
LAYER0001
 62
     7
100
AcDbLine
 10
324.3963538787175
 20
-608.5000331729289
 30
0.0
 11
324.3963538787175
 21
-637.2434634752289
 31
0.0
  0
ARC
  5
1F2
330
66
100
AcDbEntity
  8
LAYER0001
 62
     7
100
AcDbCircle
 10
321.3963538787175
 20
-608.5000331729289
 30
0.0
 40
3.0
100
AcDbArc
 50
0.0
 51
90.0
  0
LINE
  5
1F3
330
66
100
AcDbEntity
  8
LAYER0001
 62
     7
100
AcDbLine
 10
319.3963538787175
 20
-526.5000331729289
 30
0.0
 11
319.3963538787175
 21
-647.2827230979289
 31
0.0
  0
ARC
  5
1F4
330
66
100
AcDbEntity
  8
LAYER0001
 62
     7
100
AcDbCircle
 10
277.3963538787175
 20
-681.0000331729289
 30
0.0
 40
3.0
100
AcDbArc
 50
90.0
 51
180.0
  0
LINE
  5
1F5
330
66
100
AcDbEntity
  8
LAYER0001
 62
     7
100
AcDbLine
 10
391.3963538787175
 20
-678.0000331729289
 30
0.0
 11
277.3963538787175
 21
-678.0000331729289
 31
0.0
  0
ARC
  5
1F6
330
66
100
AcDbEntity
  8
LAYER0001
 62
     7
100
AcDbCircle
 10
391.3963538787175
 20
-681.0000331729289
 30
0.0
 40
3.0
100
AcDbArc
 50
0.0
 51
90.0
  0
ARC
  5
1F7
330
66
100
AcDbEntity
  8
LAYER0001
 62
     7
100
AcDbCircle
 10
367.3963538787175
 20
-608.5000331729289
 30
0.0
 40
3.0
100
AcDbArc
 50
90.0
 51
180.0
  0
LINE
  5
1F8
330
66
100
AcDbEntity
  8
LAYER0001
 62
     7
100
AcDbLine
 10
364.3963538787175
 20
-675.0000331729289
 30
0.0
 11
364.3963538787175
 21
-608.5000331729289
 31
0.0
  0
ARC
  5
1F9
330
66
100
AcDbEntity
  8
LAYER0001
 62
     7
100
AcDbCircle
 10
367.3963538787175
 20
-675.0000331729289
 30
0.0
 40
3.0
100
AcDbArc
 50
180.0
 51
270.0
  0
LINE
  5
1FA
330
66
100
AcDbEntity
  8
LAYER0001
 62
     7
100
AcDbLine
 10
303.7004893301175
 20
-676.4226918395289
 30
0.0
 11
324.0375737329175
 21
-638.6661221418289
 31
0.0
  0
ARC
  5
1FB
330
66
100
AcDbEntity
  8
LAYER0001
 62
     7
100
AcDbCircle
 10
301.0592694759175
 20
-675.0000331729289
 30
0.0
 40
3.0
100
AcDbArc
 50
270.0
 51
331.6914524756003
  0
LINE
  5
1FC
330
66
100
AcDbEntity
  8
LAYER0001
 62
     7
100
AcDbLine
 10
327.3963538787175
 20
-605.5000331729289
 30
0.0
 11
361.3963538787175
 21
-605.5000331729289
 31
0.0
  0
LINE
  5
1FD
330
66
100
AcDbEntity
  8
LAYER0001
 62
     7
100
AcDbLine
 10
388.3963538787175
 20
-663.5798683390289
 30
0.0
 11
388.3963538787175
 21
-546.7943111470288
 31
0.0
  0
LINE
  5
1FE
330
66
100
AcDbEntity
  8
LAYER0001
 62
     7
100
AcDbLine
 10
364.3963538787175
 20
-673.6672494851289
 30
0.0
 11
383.3963538787175
 21
-673.0864027460289
 31
0.0
  0
LINE
  5
1FF
330
66
100
AcDbEntity
  8
LAYER0001
 62
     7
100
AcDbLine
 10
386.4959736659175
 20
-676.8939992706289
 30
0.0
 11
383.3963538787175
 21
-673.0864027460289
 31
0.0
  0
ARC
  5
200
330
66
100
AcDbEntity
  8
LAYER0001
 62
     7
100
AcDbCircle
 10
388.8225360272174
 20
-675.0000331729289
 30
0.0
 40
3.0
100
AcDbArc
 50
219.1477271886
 51
270.0
  0
LINE
  5
201
330
66
100
AcDbEntity
  8
LAYER0001
 62
     7
100
AcDbLine
 10
281.5044166942175
 20
-677.9922175965289
 30
0.0
 11
303.7205494229174
 21
-676.3854495153289
 31
0.0
  0
ARC
  5
202
330
66
100
AcDbEntity
  8
LAYER0001
 62
     7
100
AcDbCircle
 10
281.2880088035174
 20
-675.0000331729289
 30
0.0
 40
3.0
100
AcDbArc
 50
270.0
 51
274.1366791704999
  0
LINE
  5
203
330
66
100
AcDbEntity
  8
LAYER0001
 62
     7
100
AcDbLine
 10
383.9882572709175
 20
-673.8135013754288
 30
0.0
 11
383.9882572709175
 21
-531.5716950455288
 31
0.0
  0
LINE
  5
204
330
66
100
AcDbEntity
  8
LAYER0001
 62
     7
100
AcDbLine
 10
385.1757331384174
 20
-675.2722057639288
 30
0.0
 11
388.2809257216175
 21
-664.4040317227289
 31
0.0
  0
LINE
  5
205
330
66
100
AcDbEntity
  8
LAYER0001
 62
     7
100
AcDbLine
 10
366.3963538787175
 20
-634.5000331729289
 30
0.0
 11
381.9882572709175
 21
-634.5000331729289
 31
0.0
  0
LINE
  5
206
330
66
100
AcDbEntity
  8
LAYER0001
 62
     7
100
AcDbLine
 10
381.9882572709175
 20
-644.4971190273288
 30
0.0
 11
366.3963538787175
 21
-644.4971190273288
 31
0.0
  0
LINE
  5
207
330
66
100
AcDbEntity
  8
LAYER0001
 62
     7
100
AcDbLine
 10
366.3963538787175
 20
-664.0271390003288
 30
0.0
 11
381.9882572709175
 21
-664.0271390003288
 31
0.0
  0
LINE
  5
208
330
66
100
AcDbEntity
  8
LAYER0001
 62
     7
100
AcDbLine
 10
300.5010523688175
 20
-545.2519316346288
 30
0.0
 11
293.3963538787175
 21
-545.5000331729289
 31
0.0
  0
ARC
  5
209
330
66
100
AcDbEntity
  8
LAYER0001
 62
     7
100
AcDbCircle
 10
300.3963538787175
 20
-542.2537591536288
 30
0.0
 40
3.0
100
AcDbArc
 50
271.9999999999999
 51
360.0
  0
LINE
  5
20A
330
66
100
AcDbEntity
  8
LAYER0001
 62
     7
100
AcDbLine
 10
300.5010523688175
 20
-665.7481347112289
 30
0.0
 11
293.3963538787175
 21
-665.5000331729289
 31
0.0
  0
ARC
  5
20B
330
66
100
AcDbEntity
  8
LAYER0001
 62
     7
100
AcDbCircle
 10
300.3963538787175
 20
-668.7463071923289
 30
0.0
 40
3.0
100
AcDbArc
 50
0.0
 51
88.00000000000016
  0
LINE
  5
20C
330
66
100
AcDbEntity
  8
LAYER0001
 62
     7
100
AcDbLine
 10
309.1869568985176
 20
-526.8565531715288
 30
0.0
 11
319.3963538787175
 21
-526.5000331729289
 31
0.0
  0
ARC
  5
20D
330
66
100
AcDbEntity
  8
LAYER0001
 62
     7
100
AcDbCircle
 10
309.3963538787175
 20
-532.8528981336289
 30
0.0
 40
6.0
100
AcDbArc
 50
92.00000000000013
 51
180.0
  0
LINE
  5
20E
330
66
100
AcDbEntity
  8
LAYER0001
 62
     7
100
AcDbLine
 10
293.3963538787175
 20
-545.5000331729289
 30
0.0
 11
293.3963538787175
 21
-665.5000331729289
 31
0.0
  0
LINE
  5
20F
330
66
100
AcDbEntity
  8
LAYER0001
 62
     7
100
AcDbLine
 10
303.3963538787175
 20
-676.4088967579289
 30
0.0
 11
303.3963538787175
 21
-532.8528981336289
 31
0.0
  0
LINE
  5
210
330
66
100
AcDbEntity
  8
LAYER0001
 62
     7
100
AcDbLine
 10
394.3963538787175
 20
-568.0000331729289
 30
0.0
 11
396.3963538787175
 21
-568.0000331729289
 31
0.0
  0
LINE
  5
211
330
66
100
AcDbEntity
  8
LAYER0001
 62
     7
100
AcDbLine
 10
394.3963538787175
 20
-598.0000331729289
 30
0.0
 11
396.3963538787175
 21
-598.0000331729289
 31
0.0
  0
LINE
  5
212
330
66
100
AcDbEntity
  8
LAYER0001
 62
     7
100
AcDbLine
 10
396.3963538787175
 20
-597.0000331729289
 30
0.0
 11
441.3963538787175
 21
-597.0000331729289
 31
0.0
  0
LINE
  5
213
330
66
100
AcDbEntity
  8
LAYER0001
 62
     7
100
AcDbLine
 10
396.3963538787175
 20
-569.0000331729289
 30
0.0
 11
441.3963538787175
 21
-569.0000331729289
 31
0.0
  0
LINE
  5
214
330
66
100
AcDbEntity
  8
LAYER0001
 62
     7
100
AcDbLine
 10
405.3963538787175
 20
-579.0000331729289
 30
0.0
 11
441.3963538787175
 21
-579.0000331729289
 31
0.0
  0
LINE
  5
215
330
66
100
AcDbEntity
  8
LAYER0001
 62
     7
100
AcDbLine
 10
405.3963538787175
 20
-587.0000331729289
 30
0.0
 11
441.3963538787175
 21
-587.0000331729289
 31
0.0
  0
LINE
  5
216
330
66
100
AcDbEntity
  8
LAYER0001
 62
     7
100
AcDbLine
 10
396.3963538787175
 20
-568.0000331729289
 30
0.0
 11
396.3963538787175
 21
-598.0000331729289
 31
0.0
  0
LINE
  5
217
330
66
100
AcDbEntity
  8
LAYER0001
 62
     7
100
AcDbLine
 10
405.3963538787175
 20
-579.0000331729289
 30
0.0
 11
405.3963538787175
 21
-587.0000331729289
 31
0.0
  0
LINE
  5
218
330
66
100
AcDbEntity
  8
LAYER0001
 62
     7
100
AcDbLine
 10
441.3963538787175
 20
-569.0000331729289
 30
0.0
 11
441.3963538787175
 21
-597.0000331729289
 31
0.0
  0
ARC
  5
219
330
66
100
AcDbEntity
  8
LAYER0001
 62
     7
100
AcDbCircle
 10
405.3963538787175
 20
-583.0000331729289
 30
0.0
 40
4.0
100
AcDbArc
 50
90.0
 51
270.0
  0
ARC
  5
21A
330
66
100
AcDbEntity
  8
LAYER0001
 62
     7
100
AcDbCircle
 10
113.5301018609175
 20
-663.4923941749289
 30
0.0
 40
5.0
100
AcDbArc
 50
189.9999999999999
 51
267.0
  0
ARC
  5
21B
330
66
100
AcDbEntity
  8
LAYER0001
 62
     7
100
AcDbCircle
 10
113.5301018609175
 20
-547.5076721710288
 30
0.0
 40
5.0
100
AcDbArc
 50
93.00000000000003
 51
170.0000000000001
  0
LINE
  5
21C
330
66
100
AcDbEntity
  8
LAYER0001
 62
     7
100
AcDbLine
 10
136.9225218568174
 20
-541.2748656569288
 30
0.0
 11
113.2684220797173
 21
-542.5145244972289
 31
0.0
  0
ARC
  5
21D
330
66
100
AcDbEntity
  8
LAYER0001
 62
     7
100
AcDbCircle
 10
136.8963538787175
 20
-540.7755508896289
 30
0.0
 40
0.5
100
AcDbArc
 50
272.9999999999998
 51
360.0
  0
LINE
  5
21E
330
66
100
AcDbEntity
  8
LAYER0001
 62
     7
100
AcDbLine
 10
137.8963538787175
 20
-540.2500331729289
 30
0.0
 11
160.3963538787175
 21
-540.2500331729289
 31
0.0
  0
ARC
  5
21F
330
66
100
AcDbEntity
  8
LAYER0001
 62
     7
100
AcDbCircle
 10
137.8963538787175
 20
-540.7500331729289
 30
0.0
 40
0.5
100
AcDbArc
 50
90.0
 51
180.0
  0
LINE
  5
220
330
66
100
AcDbEntity
  8
LAYER0001
 62
     7
100
AcDbLine
 10
136.9225218568174
 20
-669.7252006889289
 30
0.0
 11
113.2684220797173
 21
-668.4855418486288
 31
0.0
  0
ARC
  5
221
330
66
100
AcDbEntity
  8
LAYER0001
 62
     7
100
AcDbCircle
 10
136.8963538787175
 20
-670.2245154563289
 30
0.0
 40
0.5
100
AcDbArc
 50
0.0
 51
87.0
  0
LINE
  5
222
330
66
100
AcDbEntity
  8
LAYER0001
 62
     7
100
AcDbLine
 10
137.8963538787175
 20
-670.7500331729289
 30
0.0
 11
160.3963538787175
 21
-670.7500331729289
 31
0.0
  0
LINE
  5
223
330
66
100
AcDbEntity
  8
LAYER0001
 62
     7
100
AcDbLine
 10
137.3963538787175
 20
-670.2500331729289
 30
0.0
 11
137.3963538787175
 21
-540.7500331729289
 31
0.0
  0
ARC
  5
224
330
66
100
AcDbEntity
  8
LAYER0001
 62
     7
100
AcDbCircle
 10
137.8963538787175
 20
-670.2500331729289
 30
0.0
 40
0.5
100
AcDbArc
 50
180.0
 51
270.0
  0
ARC
  5
225
330
66
100
AcDbEntity
  8
LAYER0001
 62
     7
100
AcDbCircle
 10
104.8963538787175
 20
-555.2244845881289
 30
0.0
 40
1.5
100
AcDbArc
 50
95.00000000000011
 51
180.0
  0
LINE
  5
226
330
66
100
AcDbEntity
  8
LAYER0001
 62
     7
100
AcDbLine
 10
107.7960886781175
 20
-551.2330244724288
 30
0.0
 11
108.6060630959173
 21
-546.6394312826288
 31
0.0
  0
LINE
  5
227
330
66
100
AcDbEntity
  8
LAYER0001
 62
     7
100
AcDbLine
 10
105.1031326473176
 20
-553.7006640336289
 30
0.0
 11
104.7656202646174
 21
-553.7301925409288
 31
0.0
  0
ARC
  5
228
330
66
100
AcDbEntity
  8
LAYER0001
 62
     7
100
AcDbCircle
 10
104.8416654191174
 20
-550.7120799394288
 30
0.0
 40
3.0
100
AcDbArc
 50
275.0000000000001
 51
350.0000000000003
  0
LINE
  5
229
330
66
100
AcDbEntity
  8
LAYER0001
 62
     7
100
AcDbLine
 10
107.7960886781175
 20
-659.7670418735288
 30
0.0
 11
108.6060630959173
 21
-664.3606350632289
 31
0.0
  0
ARC
  5
22A
330
66
100
AcDbEntity
  8
LAYER0001
 62
     7
100
AcDbCircle
 10
104.8416654191174
 20
-660.2879864065288
 30
0.0
 40
3.0
100
AcDbArc
 50
10.00000000000019
 51
85.0
  0
LINE
  5
22B
330
66
100
AcDbEntity
  8
LAYER0001
 62
     7
100
AcDbLine
 10
103.3963538787175
 20
-655.7755817578288
 30
0.0
 11
103.3963538787175
 21
-555.2244845881289
 31
0.0
  0
LINE
  5
22C
330
66
100
AcDbEntity
  8
LAYER0001
 62
     7
100
AcDbLine
 10
104.7656202646174
 20
-657.2698738049288
 30
0.0
 11
105.1031326473176
 21
-657.2994023122288
 31
0.0
  0
ARC
  5
22D
330
66
100
AcDbEntity
  8
LAYER0001
 62
     7
100
AcDbCircle
 10
104.8963538787175
 20
-655.7755817578288
 30
0.0
 40
1.5
100
AcDbArc
 50
180.0
 51
264.9999999999999
  0
LINE
  5
22E
330
66
100
AcDbEntity
  8
LAYER0001
 62
     7
100
AcDbLine
 10
107.3963538787175
 20
-658.7152286775288
 30
0.0
 11
107.3963538787175
 21
-552.2848376684289
 31
0.0
  0
LINE
  5
22F
330
66
100
AcDbEntity
  8
LAYER0001
 62
     7
100
AcDbLine
 10
160.3963538787175
 20
-665.0000331729289
 30
0.0
 11
293.3963538787175
 21
-665.0000331729289
 31
0.0
  0
LINE
  5
230
330
66
100
AcDbEntity
  8
LAYER0001
 62
     7
100
AcDbLine
 10
160.3963538787175
 20
-546.0000331729289
 30
0.0
 11
293.3963538787175
 21
-546.0000331729289
 31
0.0
  0
ARC
  5
231
330
66
100
AcDbEntity
  8
LAYER0001
 62
     7
100
AcDbCircle
 10
156.3963538787175
 20
-629.0758747515289
 30
0.0
 40
4.0
100
AcDbArc
 50
180.0
 51
270.0
  0
ARC
  5
232
330
66
100
AcDbEntity
  8
LAYER0001
 62
     7
100
AcDbCircle
 10
156.3963538787175
 20
-637.0758747515289
 30
0.0
 40
4.0
100
AcDbArc
 50
0.0
 51
90.0
  0
LINE
  5
233
330
66
100
AcDbEntity
  8
LAYER0001
 62
     7
100
AcDbLine
 10
152.3963538787175
 20
-567.5581416409289
 30
0.0
 11
152.3963538787175
 21
-629.0758747515289
 31
0.0
  0
ARC
  5
234
330
66
100
AcDbEntity
  8
LAYER0001
 62
     7
100
AcDbCircle
 10
156.3963538787175
 20
-567.5581416409289
 30
0.0
 40
4.0
100
AcDbArc
 50
90.0
 51
180.0
  0
ARC
  5
235
330
66
100
AcDbEntity
  8
LAYER0001
 62
     7
100
AcDbCircle
 10
156.3963538787175
 20
-559.5581416409289
 30
0.0
 40
4.0
100
AcDbArc
 50
270.0
 51
360.0
  0
LINE
  5
236
330
66
100
AcDbEntity
  8
LAYER0001
 62
     7
100
AcDbLine
 10
160.3963538787175
 20
-540.2500331729289
 30
0.0
 11
160.3963538787175
 21
-559.5581416409289
 31
0.0
  0
LINE
  5
237
330
66
100
AcDbEntity
  8
LAYER0001
 62
     7
100
AcDbLine
 10
160.3963538787175
 20
-637.0758747515289
 30
0.0
 11
160.3963538787175
 21
-670.7500331729289
 31
0.0
  0
LINE
  5
238
330
66
100
AcDbEntity
  8
LAYER0001
  6
DASHED2
 62
     7
100
AcDbLine
 10
364.3963538787175
 20
-673.9797377246289
 30
0.0
 11
364.3963538787175
 21
-674.0553437637288
 31
0.0
  0
LINE
  5
239
330
66
100
AcDbEntity
  8
LAYER0001
  6
DASHED2
 62
     7
100
AcDbLine
 10
280.3963538787175
 20
-693.0000331729289
 30
0.0
 11
283.8963538787175
 21
-681.0000331729289
 31
0.0
  0
LINE
  5
23A
330
66
100
AcDbEntity
  8
LAYER0001
  6
DASHED2
 62
     7
100
AcDbLine
 10
283.8963538787175
 20
-681.0000331729289
 30
0.0
 11
283.8963538787175
 21
-678.0000331729289
 31
0.0
  0
LINE
  5
23B
330
66
100
AcDbEntity
  8
LAYER0001
  6
DASHED2
 62
     7
100
AcDbLine
 10
294.8963538787175
 20
-678.0000331729289
 30
0.0
 11
294.8963538787175
 21
-681.0000331729289
 31
0.0
  0
LINE
  5
23C
330
66
100
AcDbEntity
  8
LAYER0001
  6
DASHED2
 62
     7
100
AcDbLine
 10
294.8963538787175
 20
-681.0000331729289
 30
0.0
 11
298.3963538787175
 21
-693.0000331729289
 31
0.0
  0
LINE
  5
23D
330
66
100
AcDbEntity
  8
LAYER0001
  6
DASHED2
 62
     7
100
AcDbLine
 10
283.8963538787175
 20
-681.0000331729289
 30
0.0
 11
294.8963538787175
 21
-681.0000331729289
 31
0.0
  0
LINE
  5
23E
330
66
100
AcDbEntity
  8
LAYER0001
  6
DASHED2
 62
     7
100
AcDbLine
 10
370.3963538787175
 20
-693.0000331729289
 30
0.0
 11
373.8963538787175
 21
-681.0000331729289
 31
0.0
  0
LINE
  5
23F
330
66
100
AcDbEntity
  8
LAYER0001
  6
DASHED2
 62
     7
100
AcDbLine
 10
373.8963538787175
 20
-681.0000331729289
 30
0.0
 11
373.8963538787175
 21
-678.0000331729289
 31
0.0
  0
LINE
  5
240
330
66
100
AcDbEntity
  8
LAYER0001
  6
DASHED2
 62
     7
100
AcDbLine
 10
384.8963538787175
 20
-678.0000331729289
 30
0.0
 11
384.8963538787175
 21
-681.0000331729289
 31
0.0
  0
LINE
  5
241
330
66
100
AcDbEntity
  8
LAYER0001
  6
DASHED2
 62
     7
100
AcDbLine
 10
384.8963538787175
 20
-681.0000331729289
 30
0.0
 11
388.3963538787175
 21
-693.0000331729289
 31
0.0
  0
LINE
  5
242
330
66
100
AcDbEntity
  8
LAYER0001
  6
DASHED2
 62
     7
100
AcDbLine
 10
373.8963538787175
 20
-681.0000331729289
 30
0.0
 11
384.8963538787175
 21
-681.0000331729289
 31
0.0
  0
LINE
  5
243
330
66
100
AcDbEntity
  8
LAYER0001
  6
CENTER
 62
     9
100
AcDbLine
 10
379.3963538787175
 20
-674.0000331729289
 30
0.0
 11
379.3963538787175
 21
-697.0000331729289
 31
0.0
  0
LINE
  5
244
330
66
100
AcDbEntity
  8
LAYER0001
  6
CENTER
 62
     9
100
AcDbLine
 10
289.3963538787175
 20
-674.0000331729289
 30
0.0
 11
289.3963538787175
 21
-697.0000331729289
 31
0.0
  0
LINE
  5
245
330
66
100
AcDbEntity
  8
LAYER0001
  6
CENTER
 62
     9
100
AcDbLine
 10
315.8963538787175
 20
-583.0000331729289
 30
0.0
 11
445.3963538787175
 21
-583.0000331729289
 31
0.0
  0
LINE
  5
246
330
66
100
AcDbEntity
  8
LAYER0001
  6
CENTER
 62
     9
100
AcDbLine
 10
83.54617061363956
 20
-605.5000331729289
 30
0.0
 11
315.8963538787175
 21
-605.5000331729289
 31
0.0
  0
ENDBLK
  5
68
330
66
100
AcDbEntity
  8
0
100
AcDbBlockEnd
  0
BLOCK
  5
6A
330
69
100
AcDbEntity
  8
0
100
AcDbBlockBegin
  2
GROUP_10
 70
     0
 71
     0
 10
0.0
 20
0.0
 30
0.0
  3
GROUP_10
  1

  0
LINE
  5
247
330
69
100
AcDbEntity
  8
0
 62
     3
100
AcDbLine
 10
1523.196187176447
 20
-242.530613192974
 30
0.0
 11
1523.196187176447
 21
-233.530613192974
 31
0.0
  0
LINE
  5
248
330
69
100
AcDbEntity
  8
0
 62
     3
100
AcDbLine
 10
1343.196187176447
 20
-242.530613192974
 30
0.0
 11
1343.196187176447
 21
-233.530613192974
 31
0.0
  0
LINE
  5
249
330
69
100
AcDbEntity
  8
0
 62
     3
100
AcDbLine
 10
1343.196187176447
 20
-242.530613192974
 30
0.0
 11
1523.196187176447
 21
-242.530613192974
 31
0.0
  0
LINE
  5
24A
330
69
100
AcDbEntity
  8
0
 62
     3
100
AcDbLine
 10
1343.196187176447
 20
-233.530613192974
 30
0.0
 11
1523.196187176447
 21
-233.530613192974
 31
0.0
  0
LINE
  5
24B
330
69
100
AcDbEntity
  8
0
 62
     3
100
AcDbLine
 10
1123.196187176447
 20
-61.33061319297397
 30
0.0
 11
1543.196187176447
 21
-61.33061319297397
 31
0.0
  0
LINE
  5
24C
330
69
100
AcDbEntity
  8
0
 62
     3
100
AcDbLine
 10
1123.196187176447
 20
-246.330613192974
 30
0.0
 11
1543.196187176447
 21
-246.330613192974
 31
0.0
  0
LINE
  5
24D
330
69
100
AcDbEntity
  8
0
 62
     3
100
AcDbLine
 10
1123.196187176447
 20
-246.330613192974
 30
0.0
 11
1123.196187176447
 21
-41.33061319297397
 31
0.0
  0
LINE
  5
24E
330
69
100
AcDbEntity
  8
0
 62
     3
100
AcDbLine
 10
1129.196187176447
 20
-61.33061319297397
 30
0.0
 11
1129.196187176447
 21
-41.33061319297397
 31
0.0
  0
LINE
  5
24F
330
69
100
AcDbEntity
  8
0
 62
     3
100
AcDbLine
 10
1129.196187176447
 20
-41.33061319297397
 30
0.0
 11
1123.196187176447
 21
-41.33061319297397
 31
0.0
  0
LINE
  5
250
330
69
100
AcDbEntity
  8
0
 62
     3
100
AcDbLine
 10
1543.196187176447
 20
-246.330613192974
 30
0.0
 11
1543.196187176447
 21
-41.33061319297397
 31
0.0
  0
LINE
  5
251
330
69
100
AcDbEntity
  8
0
 62
     3
100
AcDbLine
 10
1543.196187176447
 20
-41.33061319297397
 30
0.0
 11
1537.196187176447
 21
-41.33061319297397
 31
0.0
  0
LINE
  5
252
330
69
100
AcDbEntity
  8
0
 62
     3
100
AcDbLine
 10
1537.196187176447
 20
-61.33061319297397
 30
0.0
 11
1537.196187176447
 21
-41.33061319297397
 31
0.0
  0
LINE
  5
253
330
69
100
AcDbEntity
  8
0
 62
     7
100
AcDbLine
 10
1172.196187176447
 20
-246.330613192974
 30
0.0
 11
1172.196187176447
 21
-258.3306131929739
 31
0.0
  0
LINE
  5
254
330
69
100
AcDbEntity
  8
0
 62
     7
100
AcDbLine
 10
1153.196187176447
 20
-246.330613192974
 30
0.0
 11
1153.196187176447
 21
-258.3306131929739
 31
0.0
  0
LINE
  5
255
330
69
100
AcDbEntity
  8
0
 62
     7
100
AcDbLine
 10
1494.196187176447
 20
-246.330613192974
 30
0.0
 11
1494.196187176447
 21
-258.3306131929739
 31
0.0
  0
LINE
  5
256
330
69
100
AcDbEntity
  8
0
 62
     7
100
AcDbLine
 10
1513.196187176447
 20
-246.330613192974
 30
0.0
 11
1513.196187176447
 21
-258.3306131929739
 31
0.0
  0
LINE
  5
257
330
69
100
AcDbEntity
  8
0
 62
     7
100
AcDbLine
 10
1153.196187176447
 20
-258.3306131929739
 30
0.0
 11
1172.196187176447
 21
-258.3306131929739
 31
0.0
  0
LINE
  5
258
330
69
100
AcDbEntity
  8
0
 62
     7
100
AcDbLine
 10
1494.196187176447
 20
-258.3306131929739
 30
0.0
 11
1513.196187176447
 21
-258.3306131929739
 31
0.0
  0
LINE
  5
259
330
69
100
AcDbEntity
  8
0
  6
CENTER
 62
     9
100
AcDbLine
 10
1333.196187176447
 20
-290.0714892274846
 30
0.0
 11
1333.196187176447
 21
18.94015875462395
 31
0.0
  0
LINE
  5
25A
330
69
100
AcDbEntity
  8
0
  6
CENTER
 62
     9
100
AcDbLine
 10
1230.696187176447
 20
-74.65353260869566
 30
0.0
 11
1230.696187176447
 21
-258.3306131929739
 31
0.0
  0
LINE
  5
25B
330
69
100
AcDbEntity
  8
0
  6
CENTER
 62
     9
100
AcDbLine
 10
1178.826357001494
 20
-171.330613192974
 30
0.0
 11
1283.24211787106
 21
-171.330613192974
 31
0.0
  0
LINE
  5
25C
330
69
100
AcDbEntity
  8
0
  6
CENTER
 62
     9
100
AcDbLine
 10
1432.656477176447
 20
-204.5246331929741
 30
0.0
 11
1230.313017176447
 21
-201.996363192974
 31
0.0
  0
LINE
  5
25D
330
69
100
AcDbEntity
  8
0
  6
CENTER
 62
     9
100
AcDbLine
 10
1227.293532176447
 20
-140.851813192974
 30
0.0
 11
1428.403407176447
 21
-118.3999231929739
 31
0.0
  0
LINE
  5
25E
330
69
100
AcDbEntity
  8
0
  6
CENTER
 62
     9
100
AcDbLine
 10
1433.196187176447
 20
-258.3306131929739
 30
0.0
 11
1433.196187176447
 21
-74.65353260869566
 31
0.0
  0
LINE
  5
25F
330
69
100
AcDbEntity
  8
0
  6
CENTER
 62
     9
100
AcDbLine
 10
1372.535596131929
 20
-161.330613192974
 30
0.0
 11
1490.230727176448
 21
-161.330613192974
 31
0.0
  0
CIRCLE
  5
260
330
69
100
AcDbEntity
  8
0
  6
CENTER
 62
     9
100
AcDbCircle
 10
1230.696192537715
 20
-171.330613192974
 30
0.0
 40
30.66814873731606
  0
CIRCLE
  5
261
330
69
100
AcDbEntity
  8
0
  6
CENTER
 62
     9
100
AcDbCircle
 10
1433.196187176447
 20
-161.330613192974
 30
0.0
 40
43.19739000000004
  0
LINE
  5
262
330
69
100
AcDbEntity
  8
0
  6
DASHED2
 62
     4
100
AcDbLine
 10
1123.196187176447
 20
-67.33061319297397
 30
0.0
 11
1179.524167176448
 21
-67.33061319297397
 31
0.0
  0
LINE
  5
263
330
69
100
AcDbEntity
  8
0
  6
DASHED2
 62
     4
100
AcDbLine
 10
1397.347657176447
 20
-212.5276131929741
 30
0.0
 11
1181.415957176448
 21
-61.33061319297397
 31
0.0
  0
LINE
  5
264
330
69
100
AcDbEntity
  8
0
  6
DASHED2
 62
     4
100
AcDbLine
 10
1393.906197176447
 20
-217.4425281929739
 30
0.0
 11
1179.524167176448
 21
-67.33061319297397
 31
0.0
  0
LINE
  5
265
330
69
100
AcDbEntity
  8
0
  6
DASHED2
 62
     4
100
AcDbLine
 10
1537.196187176447
 20
-61.33061319297397
 30
0.0
 11
1537.196187176447
 21
-106.197328192974
 31
0.0
  0
LINE
  5
266
330
69
100
AcDbEntity
  8
0
  6
DASHED2
 62
     4
100
AcDbLine
 10
1487.322772176447
 20
-192.580613192974
 30
0.0
 11
1537.196187176447
 21
-106.197328192974
 31
0.0
  0
LINE
  5
267
330
69
100
AcDbEntity
  8
0
  6
DASHED2
 62
     4
100
AcDbLine
 10
1492.518927176447
 20
-195.580613192974
 30
0.0
 11
1543.196187176447
 21
-107.805023192974
 31
0.0
  0
ARC
  5
268
330
69
100
AcDbEntity
  8
0
  6
DASHED2
 62
     4
100
AcDbCircle
 10
1433.196187176447
 20
-161.330613192974
 30
0.0
 40
62.5
100
AcDbArc
 50
234.9999999999556
 51
329.9999999999377
  0
ARC
  5
269
330
69
100
AcDbEntity
  8
0
  6
DASHED2
 62
     4
100
AcDbCircle
 10
1433.196187176447
 20
-161.330613192974
 30
0.0
 40
68.5
100
AcDbArc
 50
234.9999999999556
 51
329.9999999999378
  0
ENDBLK
  5
6B
330
69
100
AcDbEntity
  8
0
100
AcDbBlockEnd
  0
BLOCK
  5
6D
330
6C
100
AcDbEntity
  8
0
100
AcDbBlockBegin
  2
GROUP_11
 70
     0
 71
     0
 10
0.0
 20
0.0
 30
0.0
  3
GROUP_11
  1

  0
LINE
  5
26B
330
6C
100
AcDbEntity
  8
0
  6
DIVIDE
 62
     7
100
AcDbLine
 10
1537.196187176447
 20
-61.33061319297397
 30
0.0
 11
1537.196187176447
 21
-41.33061319297397
 31
0.0
  0
LINE
  5
26C
330
6C
100
AcDbEntity
  8
0
  6
DIVIDE
 62
     2
100
AcDbLine
 10
1238.541877097944
 20
-101.330613192974
 30
0.0
 11
1537.196187176447
 21
-101.330613192974
 31
0.0
  0
LINE
  5
26D
330
6C
100
AcDbEntity
  8
0
  6
DIVIDE
 62
     2
100
AcDbLine
 10
1123.196187176447
 20
-11.33061319297397
 30
0.0
 11
1537.196187176447
 21
-11.33061319297397
 31
0.0
  0
LINE
  5
26E
330
6C
100
AcDbEntity
  8
0
  6
DIVIDE
 62
     2
100
AcDbLine
 10
1537.196187176447
 20
-101.330613192974
 30
0.0
 11
1537.196187176447
 21
-11.33061319297397
 31
0.0
  0
LINE
  5
26F
330
6C
100
AcDbEntity
  8
0
  6
DIVIDE
 62
     2
100
AcDbLine
 10
1123.196187176447
 20
-11.33061319297397
 30
0.0
 11
1123.196187176447
 21
-39.03263294526315
 31
0.0
  0
LINE
  5
270
330
6C
100
AcDbEntity
  8
0
  6
DIVIDE
 62
     2
100
AcDbLine
 10
1238.541877097944
 20
-101.330613192974
 30
0.0
 11
1181.415957176448
 21
-61.33061319297386
 31
0.0
  0
LINE
  5
271
330
6C
100
AcDbEntity
  8
0
  6
DIVIDE
 62
     2
100
AcDbLine
 10
1181.415957176448
 20
-61.33061319297397
 30
0.0
 11
1123.196187176447
 21
-39.03263294526315
 31
0.0
  0
LINE
  5
272
330
6C
100
AcDbEntity
  8
0
  6
DIVIDE
 62
     2
100
AcDbLine
 10
1123.196187176447
 20
-21.33061319297397
 30
0.0
 11
1537.196187176447
 21
-21.33061319297397
 31
0.0
  0
LINE
  5
273
330
6C
100
AcDbEntity
  8
0
  6
DIVIDE
 62
     2
100
AcDbLine
 10
1123.196187176447
 20
-39.03263294526315
 30
0.0
 11
1537.196187176447
 21
-39.03263294526315
 31
0.0
  0
ENDBLK
  5
6E
330
6C
100
AcDbEntity
  8
0
100
AcDbBlockEnd
  0
BLOCK
  5
70
330
6F
100
AcDbEntity
  8
0
100
AcDbBlockBegin
  2
DA_IMAGEDIMGROUP_1
 70
     0
 71
     0
 10
0.0
 20
0.0
 30
0.0
  3
DA_IMAGEDIMGROUP_1
  1

  0
ARC
  5
274
330
6F
100
AcDbEntity
  8
LAYER0016
 62
     8
100
AcDbCircle
 10
316.1753072935225
 20
-855.0
 30
0.0
 40
594.2745749237174
100
AcDbArc
 50
150.041436279158
 51
180.0
  0
INSERT
  5
27B
330
6F
100
AcDbEntity
  8
LAYER0016
 62
     8
100
AcDbBlockReference
  2
_OPEN30
 10
-198.6963263456534
 20
-558.2349898076066
 30
0.0
 41
29.99997611445993
 42
30.00008592479957
 50
61.9937990153374
  0
INSERT
  5
27C
330
6F
100
AcDbEntity
  8
LAYER0016
 62
     8
100
AcDbBlockReference
  2
_OPEN30
 10
-278.099267630195
 20
-854.9999999999999
 30
0.0
 41
29.99997611445993
 42
30.00008592479957
 50
268.0476372638205
  0
TEXT
  5
27E
330
6F
100
AcDbEntity
  8
LAYER0016
 62
     7
100
AcDbText
 10
-281.8782750424493
 20
-713.616952738934
 30
0.0
 40
45.0
  1
E
 50
75.02071813957898
 41
0.9882352941176491
  7
FDASTYLE0
 72
     5
 11
-272.5733640549973
 21
-678.8402560655062
 31
0.0
100
AcDbText
  0
ENDBLK
  5
71
330
6F
100
AcDbEntity
  8
0
100
AcDbBlockEnd
  0
BLOCK
  5
73
330
72
100
AcDbEntity
  8
0
100
AcDbBlockBegin
  2
DA_IMAGEDIMGROUP_2
 70
     0
 71
     0
 10
0.0
 20
0.0
 30
0.0
  3
DA_IMAGEDIMGROUP_2
  1

  0
LINE
  5
27F
330
72
100
AcDbEntity
  8
LAYER0016
 62
     8
100
AcDbLine
 10
-456.0494480460111
 20
-571.9129286648725
 30
0.0
 11
-606.0494480460111
 21
-571.9129286648725
 31
0.0
  0
LINE
  5
280
330
72
100
AcDbEntity
  8
LAYER0016
 62
     8
100
AcDbLine
 10
301.19628063653
 20
-1007.000000748002
 30
0.0
 11
-606.0494480460111
 21
-1007.000000748002
 31
0.0
  0
LINE
  5
281
330
72
100
AcDbEntity
  8
LAYER0016
 62
     8
100
AcDbLine
 10
-305.9774476955796
 20
-245.7686950953134
 30
0.0
 11
-606.0494480460111
 21
-245.7686950953134
 31
0.0
  0
LINE
  5
282
330
72
100
AcDbEntity
  8
LAYER0016
 62
     8
100
AcDbLine
 10
-591.0494480460111
 20
-1007.000000748002
 30
0.0
 11
-591.0494480460111
 21
-571.9129286648725
 31
0.0
  0
INSERT
  5
283
330
72
100
AcDbEntity
  8
LAYER0016
 62
     8
100
AcDbBlockReference
  2
_OPEN30
 10
-591.0494480460111
 20
-1007.000000748002
 30
0.0
 41
29.99997611445993
 42
30.00008592479957
 50
270.0
  0
INSERT
  5
284
330
72
100
AcDbEntity
  8
LAYER0016
 62
     8
100
AcDbBlockReference
  2
_OPEN30
 10
-591.0494480460111
 20
-571.9129286648725
 30
0.0
 41
29.99997611445993
 42
30.00008592479957
 50
90.0
  0
LINE
  5
285
330
72
100
AcDbEntity
  8
LAYER0016
 62
     8
100
AcDbLine
 10
-591.0494480460111
 20
-571.9129286648725
 30
0.0
 11
-591.0494480460111
 21
-245.7686950953134
 31
0.0
  0
INSERT
  5
286
330
72
100
AcDbEntity
  8
LAYER0016
 62
     8
100
AcDbBlockReference
  2
_OPEN30
 10
-591.0494480460111
 20
-571.9129286648725
 30
0.0
 41
29.99997611445993
 42
30.00008592479957
 50
270.0
  0
INSERT
  5
287
330
72
100
AcDbEntity
  8
LAYER0016
 62
     8
100
AcDbBlockReference
  2
_OPEN30
 10
-591.0494480460111
 20
-245.7686950953134
 30
0.0
 41
29.99997611445993
 42
30.00008592479957
 50
90.0
  0
TEXT
  5
288
330
72
100
AcDbEntity
  8
LAYER0016
 62
     7
100
AcDbText
 10
-606.0494480460111
 20
-807.4564647064374
 30
0.0
 40
45.0
  1
D
 50
90.0
 41
0.9333333333333334
  7
FDASTYLE0
 72
     5
 11
-606.0494480460111
 21
-771.4564647064374
 31
0.0
100
AcDbText
  0
TEXT
  5
289
330
72
100
AcDbEntity
  8
LAYER0016
 62
     7
100
AcDbText
 10
-606.0494480460111
 20
-462.840811880093
 30
0.0
 40
45.0
  1
326
 50
90.0
 41
0.8842105263157896
  7
FDASTYLE0
 72
     5
 11
-606.0494480460111
 21
-354.840811880093
 31
0.0
100
AcDbText
  0
ENDBLK
  5
74
330
72
100
AcDbEntity
  8
0
100
AcDbBlockEnd
  0
BLOCK
  5
76
330
75
100
AcDbEntity
  8
0
100
AcDbBlockBegin
  2
DA_IMAGEDIMGROUP_3
 70
     0
 71
     0
 10
0.0
 20
0.0
 30
0.0
  3
DA_IMAGEDIMGROUP_3
  1

  0
LINE
  5
28A
330
75
100
AcDbEntity
  8
LAYER0016
 62
     8
100
AcDbLine
 10
-305.9774476955796
 20
-245.7686950953134
 30
0.0
 11
-756.0494480460111
 21
-245.7686950953134
 31
0.0
  0
LINE
  5
28B
330
75
100
AcDbEntity
  8
LAYER0016
 62
     8
100
AcDbLine
 10
301.19628063653
 20
-1007.000000748002
 30
0.0
 11
-756.0494480460111
 21
-1007.000000748002
 31
0.0
  0
LINE
  5
28C
330
75
100
AcDbEntity
  8
LAYER0016
 62
     8
100
AcDbLine
 10
-741.0494480460111
 20
-1007.000000748002
 30
0.0
 11
-741.0494480460111
 21
-245.7686950953134
 31
0.0
  0
INSERT
  5
28D
330
75
100
AcDbEntity
  8
LAYER0016
 62
     8
100
AcDbBlockReference
  2
_OPEN30
 10
-741.0494480460111
 20
-1007.000000748002
 30
0.0
 41
29.99997611445993
 42
30.00008592479957
 50
270.0
  0
INSERT
  5
28E
330
75
100
AcDbEntity
  8
LAYER0016
 62
     8
100
AcDbBlockReference
  2
_OPEN30
 10
-741.0494480460111
 20
-245.7686950953134
 30
0.0
 41
29.99997611445993
 42
30.00008592479957
 50
90.0
  0
TEXT
  5
28F
330
75
100
AcDbEntity
  8
LAYER0016
 62
     7
100
AcDbText
 10
-756.0494480460111
 20
-644.3843479216578
 30
0.0
 40
45.0
  1
C
 50
90.0
 41
0.9333333333333334
  7
FDASTYLE0
 72
     5
 11
-756.0494480460111
 21
-608.3843479216578
 31
0.0
100
AcDbText
  0
ENDBLK
  5
77
330
75
100
AcDbEntity
  8
0
100
AcDbBlockEnd
  0
BLOCK
  5
79
330
78
100
AcDbEntity
  8
0
100
AcDbBlockBegin
  2
DA_IMAGEDIMGROUP_4
 70
     0
 71
     0
 10
0.0
 20
0.0
 30
0.0
  3
DA_IMAGEDIMGROUP_4
  1

  0
LINE
  5
290
330
78
100
AcDbEntity
  8
LAYER0016
 62
     8
100
AcDbLine
 10
-441.0494480460111
 20
-1231.999956878984
 30
0.0
 11
1543.196187176447
 21
-1231.999956878984
 31
0.0
  0
INSERT
  5
291
330
78
100
AcDbEntity
  8
LAYER0016
 62
     8
100
AcDbBlockReference
  2
_OPEN30
 10
-441.0494480460111
 20
-1231.999956878984
 30
0.0
 41
29.99997611445993
 42
30.00008592479957
 50
180.0
  0
INSERT
  5
292
330
78
100
AcDbEntity
  8
LAYER0016
 62
     8
100
AcDbBlockReference
  2
_OPEN30
 10
1543.196187176447
 20
-1231.999956878984
 30
0.0
 41
29.99997611445993
 42
30.00008592479957
 50
360.0
  0
LINE
  5
293
330
78
100
AcDbEntity
  8
LAYER0016
 62
     8
100
AcDbLine
 10
-441.0494480460111
 20
-586.9129286648725
 30
0.0
 11
-441.0494480460111
 21
-1246.999956878984
 31
0.0
  0
LINE
  5
294
330
78
100
AcDbEntity
  8
LAYER0016
 62
     8
100
AcDbLine
 10
1543.196187176447
 20
-942.1999996035929
 30
0.0
 11
1543.196187176447
 21
-1246.999956878984
 31
0.0
  0
TEXT
  5
295
330
78
100
AcDbEntity
  8
LAYER0016
 62
     7
100
AcDbText
 10
533.0733695652179
 20
-1216.999956878984
 30
0.0
 40
45.0
  1
B
 41
0.9333333333333334
  7
FDASTYLE0
 72
     5
 11
569.0733695652179
 21
-1216.999956878984
 31
0.0
100
AcDbText
  0
ENDBLK
  5
7A
330
78
100
AcDbEntity
  8
0
100
AcDbBlockEnd
  0
BLOCK
  5
7C
330
7B
100
AcDbEntity
  8
0
100
AcDbBlockBegin
  2
DA_IMAGEDIMGROUP_5
 70
     0
 71
     0
 10
0.0
 20
0.0
 30
0.0
  3
DA_IMAGEDIMGROUP_5
  1

  0
LINE
  5
296
330
7B
100
AcDbEntity
  8
LAYER0016
 62
     8
100
AcDbLine
 10
1411.196219601374
 20
-734.9999873965617
 30
0.0
 11
1708.196187176447
 21
-734.9999873965617
 31
0.0
  0
LINE
  5
297
330
7B
100
AcDbEntity
  8
LAYER0016
 62
     8
100
AcDbLine
 10
1432.196173825007
 20
-952.0000179141398
 30
0.0
 11
1708.196187176447
 21
-952.0000179141398
 31
0.0
  0
LINE
  5
298
330
7B
100
AcDbEntity
  8
LAYER0016
 62
     8
100
AcDbLine
 10
1693.196187176447
 20
-952.0000179141398
 30
0.0
 11
1693.196187176447
 21
-734.9999873965617
 31
0.0
  0
INSERT
  5
299
330
7B
100
AcDbEntity
  8
LAYER0016
 62
     8
100
AcDbBlockReference
  2
_OPEN30
 10
1693.196187176447
 20
-952.0000179141398
 30
0.0
 41
29.99997611445993
 42
30.00008592479957
 50
270.0
  0
INSERT
  5
29A
330
7B
100
AcDbEntity
  8
LAYER0016
 62
     8
100
AcDbBlockReference
  2
_OPEN30
 10
1693.196187176447
 20
-734.9999873965617
 30
0.0
 41
29.99997611445993
 42
30.00008592479957
 50
90.0
  0
TEXT
  5
29B
330
7B
100
AcDbEntity
  8
LAYER0016
 62
     7
100
AcDbText
 10
1678.196187176447
 20
-861.5000026553507
 30
0.0
 40
45.0
  1
G
 50
90.0
 41
0.9333333333333334
  7
FDASTYLE0
 72
     5
 11
1678.196187176447
 21
-825.5000026553507
 31
0.0
100
AcDbText
  0
ENDBLK
  5
7D
330
7B
100
AcDbEntity
  8
0
100
AcDbBlockEnd
  0
BLOCK
  5
7F
330
7E
100
AcDbEntity
  8
0
100
AcDbBlockBegin
  2
DA_IMAGEDIMGROUP_6
 70
     0
 71
     0
 10
0.0
 20
0.0
 30
0.0
  3
DA_IMAGEDIMGROUP_6
  1

  0
LINE
  5
29C
330
7E
100
AcDbEntity
  8
LAYER0016
 62
     8
100
AcDbLine
 10
540.1961890837957
 20
558.9673913043486
 30
0.0
 11
540.1961890837957
 21
408.9673913043486
 31
0.0
  0
LINE
  5
29D
330
7E
100
AcDbEntity
  8
LAYER0016
 62
     8
100
AcDbLine
 10
1396.196189083796
 20
558.9673913043486
 30
0.0
 11
1396.196189083796
 21
408.9673913043486
 31
0.0
  0
LINE
  5
29E
330
7E
100
AcDbEntity
  8
LAYER0016
 62
     8
100
AcDbLine
 10
1543.196187176447
 20
558.9673913043486
 30
0.0
 11
1543.196187176447
 21
408.9673913043486
 31
0.0
  0
LINE
  5
29F
330
7E
100
AcDbEntity
  8
LAYER0016
 62
     8
100
AcDbLine
 10
540.1961890837957
 20
423.9673913043486
 30
0.0
 11
1396.196189083796
 21
423.9673913043486
 31
0.0
  0
INSERT
  5
2A0
330
7E
100
AcDbEntity
  8
LAYER0016
 62
     8
100
AcDbBlockReference
  2
_OPEN30
 10
540.1961890837957
 20
423.9673913043486
 30
0.0
 41
29.99997611445993
 42
30.00008592479957
 50
180.0
  0
INSERT
  5
2A1
330
7E
100
AcDbEntity
  8
LAYER0016
 62
     8
100
AcDbBlockReference
  2
_OPEN30
 10
1396.196189083796
 20
423.9673913043486
 30
0.0
 41
29.99997611445993
 42
30.00008592479957
 50
360.0
  0
LINE
  5
2A2
330
7E
100
AcDbEntity
  8
LAYER0016
 62
     8
100
AcDbLine
 10
1396.196189083796
 20
423.9673913043486
 30
0.0
 11
1543.196187176447
 21
423.9673913043486
 31
0.0
  0
INSERT
  5
2A3
330
7E
100
AcDbEntity
  8
LAYER0016
 62
     8
100
AcDbBlockReference
  2
_OPEN30
 10
1396.196189083796
 20
423.9673913043486
 30
0.0
 41
29.99997611445993
 42
30.00008592479957
 50
180.0
  0
INSERT
  5
2A4
330
7E
100
AcDbEntity
  8
LAYER0016
 62
     8
100
AcDbBlockReference
  2
_OPEN30
 10
1543.196187176447
 20
423.9673913043486
 30
0.0
 41
29.99997611445993
 42
30.00008592479957
 50
360.0
  0
TEXT
  5
2A5
330
7E
100
AcDbEntity
  8
LAYER0016
 62
     7
100
AcDbText
 10
950.1961890837956
 20
438.9673913043486
 30
0.0
 40
45.0
  1
F
 41
0.988235294117647
  7
FDASTYLE0
 72
     5
 11
986.1961890837956
 21
438.9673913043486
 31
0.0
100
AcDbText
  0
TEXT
  5
2A6
330
7E
100
AcDbEntity
  8
LAYER0016
 62
     7
100
AcDbText
 10
1415.696188130121
 20
438.9673913043486
 30
0.0
 40
45.0
  1
147
 41
0.8842105263157896
  7
FDASTYLE0
 72
     5
 11
1523.696188130121
 21
438.9673913043486
 31
0.0
100
AcDbText
  0
ENDBLK
  5
80
330
7E
100
AcDbEntity
  8
0
100
AcDbBlockEnd
  0
BLOCK
  5
82
330
81
100
AcDbEntity
  8
0
100
AcDbBlockBegin
  2
DA_IMAGEDIMGROUP_7
 70
     0
 71
     0
 10
0.0
 20
0.0
 30
0.0
  3
DA_IMAGEDIMGROUP_7
  1

  0
LINE
  5
2A7
330
81
100
AcDbEntity
  8
LAYER0016
 62
     8
100
AcDbLine
 10
-1644.274724023004
 20
-245.7686163034869
 30
0.0
 11
-1824.274724023004
 21
-245.7686163034869
 31
0.0
  0
LINE
  5
2A8
330
81
100
AcDbEntity
  8
LAYER0016
 62
     8
100
AcDbLine
 10
-1619.274724023005
 20
-1006.999971660935
 30
0.0
 11
-1824.274724023004
 21
-1006.999971660935
 31
0.0
  0
LINE
  5
2A9
330
81
100
AcDbEntity
  8
LAYER0016
 62
     8
100
AcDbLine
 10
-1809.274724023004
 20
-1006.999971660935
 30
0.0
 11
-1809.274724023004
 21
-245.7686163034869
 31
0.0
  0
INSERT
  5
2AA
330
81
100
AcDbEntity
  8
LAYER0016
 62
     8
100
AcDbBlockReference
  2
_OPEN30
 10
-1809.274724023004
 20
-1006.999971660935
 30
0.0
 41
29.99997611445993
 42
30.00008592479957
 50
270.0
  0
INSERT
  5
2AB
330
81
100
AcDbEntity
  8
LAYER0016
 62
     8
100
AcDbBlockReference
  2
_OPEN30
 10
-1809.274724023004
 20
-245.7686163034869
 30
0.0
 41
29.99997611445993
 42
30.00008592479957
 50
90.0
  0
TEXT
  5
2AC
330
81
100
AcDbEntity
  8
LAYER0016
 62
     7
100
AcDbText
 10
-1824.274724023004
 20
-644.3842939822112
 30
0.0
 40
45.0
  1
C
 50
90.0
 41
0.9333333333333334
  7
FDASTYLE0
 72
     5
 11
-1824.274724023004
 21
-608.3842939822112
 31
0.0
100
AcDbText
  0
ENDBLK
  5
83
330
81
100
AcDbEntity
  8
0
100
AcDbBlockEnd
  0
BLOCK
  5
85
330
84
100
AcDbEntity
  8
0
100
AcDbBlockBegin
  2
DA_IMAGEDIMGROUP_8
 70
     0
 71
     0
 10
0.0
 20
0.0
 30
0.0
  3
DA_IMAGEDIMGROUP_8
  1

  0
LINE
  5
2AD
330
84
100
AcDbEntity
  8
LAYER0016
 62
     8
100
AcDbLine
 10
-1292.274724023004
 20
-461.9999716609357
 30
0.0
 11
-1039.274724023006
 21
-461.9999716609357
 31
0.0
  0
LINE
  5
2AE
330
84
100
AcDbEntity
  8
LAYER0016
 62
     8
100
AcDbLine
 10
-1209.274724023006
 20
-1006.999971660935
 30
0.0
 11
-1039.274724023006
 21
-1006.999971660935
 31
0.0
  0
LINE
  5
2AF
330
84
100
AcDbEntity
  8
LAYER0016
 62
     8
100
AcDbLine
 10
-1054.274724023006
 20
-1006.999971660935
 30
0.0
 11
-1054.274724023006
 21
-461.9999716609358
 31
0.0
  0
INSERT
  5
2B0
330
84
100
AcDbEntity
  8
LAYER0016
 62
     8
100
AcDbBlockReference
  2
_OPEN30
 10
-1054.274724023006
 20
-1006.999971660935
 30
0.0
 41
29.99997611445993
 42
30.00008592479957
 50
270.0
  0
INSERT
  5
2B1
330
84
100
AcDbEntity
  8
LAYER0016
 62
     8
100
AcDbBlockReference
  2
_OPEN30
 10
-1054.274724023006
 20
-461.9999716609357
 30
0.0
 41
29.99997611445993
 42
30.00008592479957
 50
90.0
  0
TEXT
  5
2B2
330
84
100
AcDbEntity
  8
LAYER0016
 62
     7
100
AcDbText
 10
-1069.274724023006
 20
-788.4999716609356
 30
0.0
 40
45.0
  1
545
 50
90.0
 41
0.8842105263157896
  7
FDASTYLE0
 72
     5
 11
-1069.274724023006
 21
-680.4999716609356
 31
0.0
100
AcDbText
  0
ENDBLK
  5
86
330
84
100
AcDbEntity
  8
0
100
AcDbBlockEnd
  0
BLOCK
  5
88
330
87
100
AcDbEntity
  8
0
100
AcDbBlockBegin
  2
DA_IMAGEDIMGROUP_9
 70
     0
 71
     0
 10
0.0
 20
0.0
 30
0.0
  3
DA_IMAGEDIMGROUP_9
  1

  0
LINE
  5
2B3
330
87
100
AcDbEntity
  8
LAYER0016
 62
     8
100
AcDbLine
 10
-1204.274724023006
 20
-1005.999971660936
 30
0.0
 11
-1204.274724023006
 21
-1171.999971660935
 31
0.0
  0
LINE
  5
2B4
330
87
100
AcDbEntity
  8
LAYER0016
 62
     8
100
AcDbLine
 10
-1624.274724023005
 20
-1005.999971660935
 30
0.0
 11
-1624.274724023005
 21
-1171.999971660935
 31
0.0
  0
LINE
  5
2B5
330
87
100
AcDbEntity
  8
LAYER0016
 62
     8
100
AcDbLine
 10
-1624.274724023005
 20
-1156.999971660935
 30
0.0
 11
-1204.274724023006
 21
-1156.999971660935
 31
0.0
  0
INSERT
  5
2B6
330
87
100
AcDbEntity
  8
LAYER0016
 62
     8
100
AcDbBlockReference
  2
_OPEN30
 10
-1624.274724023005
 20
-1156.999971660935
 30
0.0
 41
29.99997611445993
 42
30.00008592479957
 50
180.0
  0
INSERT
  5
2B7
330
87
100
AcDbEntity
  8
LAYER0016
 62
     8
100
AcDbBlockReference
  2
_OPEN30
 10
-1204.274724023006
 20
-1156.999971660935
 30
0.0
 41
29.99997611445993
 42
30.00008592479957
 50
360.0
  0
TEXT
  5
2B8
330
87
100
AcDbEntity
  8
LAYER0016
 62
     7
100
AcDbText
 10
-1432.274724023006
 20
-1141.999971660935
 30
0.0
 40
45.0
  1
A
 41
0.988235294117647
  7
FDASTYLE0
 72
     5
 11
-1396.274724023006
 21
-1141.999971660935
 31
0.0
100
AcDbText
  0
ENDBLK
  5
89
330
87
100
AcDbEntity
  8
0
100
AcDbBlockEnd
  0
BLOCK
  5
8B
330
8A
100
AcDbEntity
  8
0
100
AcDbBlockBegin
  2
DA_IMAGEDIMGROUP_10
 70
     0
 71
     0
 10
0.0
 20
0.0
 30
0.0
  3
DA_IMAGEDIMGROUP_10
  1

  0
LINE
  5
2B9
330
8A
100
AcDbEntity
  8
LAYER0016
 62
     8
100
AcDbLine
 10
1123.196187176447
 20
-261.3306131929739
 30
0.0
 11
1123.196187176447
 21
-423.3306131929739
 31
0.0
  0
LINE
  5
2BA
330
8A
100
AcDbEntity
  8
LAYER0016
 62
     8
100
AcDbLine
 10
1543.196187176447
 20
-261.3306131929739
 30
0.0
 11
1543.196187176447
 21
-423.3306131929739
 31
0.0
  0
LINE
  5
2BB
330
8A
100
AcDbEntity
  8
LAYER0016
 62
     8
100
AcDbLine
 10
1123.196187176447
 20
-408.3306131929739
 30
0.0
 11
1543.196187176447
 21
-408.3306131929739
 31
0.0
  0
INSERT
  5
2BC
330
8A
100
AcDbEntity
  8
LAYER0016
 62
     8
100
AcDbBlockReference
  2
_OPEN30
 10
1123.196187176447
 20
-408.3306131929739
 30
0.0
 41
29.99997611445993
 42
30.00008592479957
 50
180.0
  0
INSERT
  5
2BD
330
8A
100
AcDbEntity
  8
LAYER0016
 62
     8
100
AcDbBlockReference
  2
_OPEN30
 10
1543.196187176447
 20
-408.3306131929739
 30
0.0
 41
29.99997611445993
 42
30.00008592479957
 50
360.0
  0
TEXT
  5
2BE
330
8A
100
AcDbEntity
  8
LAYER0016
 62
     7
100
AcDbText
 10
1315.196187176447
 20
-393.3306131929739
 30
0.0
 40
45.0
  1
A
 41
0.988235294117647
  7
FDASTYLE0
 72
     5
 11
1351.196187176447
 21
-393.3306131929739
 31
0.0
100
AcDbText
  0
ENDBLK
  5
8C
330
8A
100
AcDbEntity
  8
0
100
AcDbBlockEnd
  0
BLOCK
  5
8E
330
8D
100
AcDbEntity
  8
0
100
AcDbBlockBegin
  2
DA_IMAGEDIMGROUP_11
 70
     0
 71
     0
 10
0.0
 20
0.0
 30
0.0
  3
DA_IMAGEDIMGROUP_11
  1

  0
LINE
  5
2BF
330
8D
100
AcDbEntity
  8
LAYER0016
 62
     8
100
AcDbLine
 10
732.6961585662175
 20
-1006.999956878984
 30
0.0
 11
732.6961585662175
 21
-951.9999797671671
 31
0.0
  0
LINE
  5
2C0
330
8D
100
AcDbEntity
  8
LAYER0016
 62
     8
100
AcDbLine
 10
361.19628063653
 20
-1006.999956878984
 30
0.0
 11
747.6961585662175
 21
-1006.999956878984
 31
0.0
  0
LINE
  5
2C1
330
8D
100
AcDbEntity
  8
LAYER0016
 62
     8
100
AcDbLine
 10
1372.196234860163
 20
-951.9999797671671
 30
0.0
 11
717.6961585662175
 21
-951.9999797671671
 31
0.0
  0
LINE
  5
2C2
330
8D
100
AcDbEntity
  8
LAYER0016
 62
     8
100
AcDbLine
 10
732.6961585662175
 20
-1137.977706878984
 30
0.0
 11
732.6961585662175
 21
-1006.999956878984
 31
0.0
  0
INSERT
  5
2C3
330
8D
100
AcDbEntity
  8
LAYER0016
 62
     8
100
AcDbBlockReference
  2
_OPEN30
 10
732.6961585662175
 20
-1006.999956878984
 30
0.0
 41
29.99997611445993
 42
30.00008592479957
 50
90.0
  0
LINE
  5
2C4
330
8D
100
AcDbEntity
  8
LAYER0016
 62
     8
100
AcDbLine
 10
732.6961585662175
 20
-891.9999797671671
 30
0.0
 11
732.6961585662175
 21
-951.9999797671671
 31
0.0
  0
INSERT
  5
2C5
330
8D
100
AcDbEntity
  8
LAYER0016
 62
     8
100
AcDbBlockReference
  2
_OPEN30
 10
732.6961585662175
 20
-951.9999797671671
 30
0.0
 41
29.99997611445993
 42
30.00008592479957
 50
270.0
  0
TEXT
  5
2C6
330
8D
100
AcDbEntity
  8
LAYER0016
 62
     7
100
AcDbText
 10
717.6961585662175
 20
-1122.977706878984
 30
0.0
 40
45.0
  1
55
 50
90.0
 41
0.9081081081081082
  7
FDASTYLE0
 72
     5
 11
717.6961585662175
 21
-1050.977706878984
 31
0.0
100
AcDbText
  0
ENDBLK
  5
8F
330
8D
100
AcDbEntity
  8
0
100
AcDbBlockEnd
  0
BLOCK
  5
91
330
90
100
AcDbEntity
  8
0
100
AcDbBlockBegin
  2
GROUP_12
 70
     0
 71
     0
 10
0.0
 20
0.0
 30
0.0
  3
GROUP_12
  1

  0
LINE
  5
2C7
330
90
100
AcDbEntity
  8
0
 62
     3
100
AcDbLine
 10
1543.196187176447
 20
993.9673913043484
 30
0.0
 11
1543.196187176447
 21
573.9673913043486
 31
0.0
  0
LINE
  5
2C8
330
90
100
AcDbEntity
  8
0
 62
     3
100
AcDbLine
 10
528.1961890837957
 20
993.9673913043484
 30
0.0
 11
528.1961890837957
 21
573.9673913043486
 31
0.0
  0
LINE
  5
2C9
330
90
100
AcDbEntity
  8
0
 62
     3
100
AcDbLine
 10
1408.196189083796
 20
573.9673913043486
 30
0.0
 11
1408.196189083795
 21
993.9673913043484
 31
0.0
  0
LINE
  5
2CA
330
90
100
AcDbEntity
  8
0
 62
     3
100
AcDbLine
 10
540.1961890837957
 20
987.9673913043484
 30
0.0
 11
1396.196189083795
 21
987.9673913043484
 31
0.0
  0
LINE
  5
2CB
330
90
100
AcDbEntity
  8
0
 62
     3
100
AcDbLine
 10
528.1961890837957
 20
993.9673913043484
 30
0.0
 11
1543.196187176447
 21
993.9673913043484
 31
0.0
  0
LINE
  5
2CC
330
90
100
AcDbEntity
  8
0
 62
     3
100
AcDbLine
 10
540.1961890837957
 20
579.9673913043486
 30
0.0
 11
1396.196189083796
 21
579.9673913043486
 31
0.0
  0
LINE
  5
2CD
330
90
100
AcDbEntity
  8
0
 62
     3
100
AcDbLine
 10
526.5961890837954
 20
573.9673913043486
 30
0.0
 11
1543.196187176447
 21
573.9673913043486
 31
0.0
  0
LINE
  5
2CE
330
90
100
AcDbEntity
  8
0
 62
     3
100
AcDbLine
 10
343.1961890837957
 20
801.3673913043482
 30
0.0
 11
343.1961890837957
 21
966.5673913043488
 31
0.0
  0
LINE
  5
2CF
330
90
100
AcDbEntity
  8
0
 62
     3
100
AcDbLine
 10
308.7910690837953
 20
801.3673913043482
 30
0.0
 11
522.1961890837957
 21
801.3673913043482
 31
0.0
  0
LINE
  5
2D0
330
90
100
AcDbEntity
  8
0
 62
     3
100
AcDbLine
 10
308.7910690837953
 20
966.5673913043488
 30
0.0
 11
522.1961890837957
 21
966.5673913043488
 31
0.0
  0
LINE
  5
2D1
330
90
100
AcDbEntity
  8
0
 62
     3
100
AcDbLine
 10
528.1961890837957
 20
993.9673913043484
 30
0.0
 11
248.1961890837957
 21
993.9673913043484
 31
0.0
  0
LINE
  5
2D2
330
90
100
AcDbEntity
  8
0
 62
     3
100
AcDbLine
 10
1396.196189083796
 20
573.9673913043486
 30
0.0
 11
1396.196189083795
 21
993.9673913043484
 31
0.0
  0
LINE
  5
2D3
330
90
100
AcDbEntity
  8
0
 62
     3
100
AcDbLine
 10
540.1961890837957
 20
573.9673913043486
 30
0.0
 11
540.1961890837957
 21
993.9673913043484
 31
0.0
  0
LINE
  5
2D4
330
90
100
AcDbEntity
  8
0
 62
     3
100
AcDbLine
 10
-405.1736057157492
 20
1008.967391304348
 30
0.0
 11
-405.1736057157492
 21
758.9673913043486
 31
0.0
  0
LINE
  5
2D5
330
90
100
AcDbEntity
  8
0
 62
     3
100
AcDbLine
 10
-405.1736057157492
 20
758.9673913043486
 30
0.0
 11
-284.9774476955778
 21
758.9673913043486
 31
0.0
  0
LINE
  5
2D6
330
90
100
AcDbEntity
  8
0
 62
     3
100
AcDbLine
 10
-290.9774476955796
 20
758.9673913043486
 30
0.0
 11
-290.9774476955796
 21
1008.967391304348
 31
0.0
  0
LINE
  5
2D7
330
90
100
AcDbEntity
  8
0
 62
     3
100
AcDbLine
 10
-284.9774476955778
 20
1008.967391304348
 30
0.0
 11
-405.1736057157492
 21
1008.967391304348
 31
0.0
  0
LINE
  5
2D8
330
90
100
AcDbEntity
  8
0
 62
     3
100
AcDbLine
 10
-284.9774476955778
 20
1008.967391304348
 30
0.0
 11
-284.9774476955778
 21
758.9673913043486
 31
0.0
  0
ELLIPSE
  5
2D9
330
90
100
AcDbEntity
  8
0
 62
     3
100
AcDbEllipse
 10
-347.675724148551
 20
883.9673913043484
 30
0.0
 11
0.0
 21
100.0
 31
0.0
210
0.0
220
0.0
230
1.0
 40
0.5
 41
0.0
 42
6.283185307179586
  0
LINE
  5
2DA
330
90
100
AcDbEntity
  8
0
 62
     3
100
AcDbLine
 10
-284.9774476955778
 20
982.475652449763
 30
0.0
 11
258.5949190837947
 21
966.5673913043488
 31
0.0
  0
LINE
  5
2DB
330
90
100
AcDbEntity
  8
0
 62
     3
100
AcDbLine
 10
-284.9795722380576
 20
785.459130158934
 30
0.0
 11
258.5949190837947
 21
801.3673913043482
 31
0.0
  0
LINE
  5
2DC
330
90
100
AcDbEntity
  8
0
 62
     3
100
AcDbLine
 10
248.1961890837957
 20
573.9673913043486
 30
0.0
 11
528.1961890837957
 21
573.9673913043486
 31
0.0
  0
LINE
  5
2DD
330
90
100
AcDbEntity
  8
0
 62
     3
100
AcDbLine
 10
1408.196189083795
 20
973.9673913043484
 30
0.0
 11
1533.196189083795
 21
973.9673913043484
 31
0.0
  0
LINE
  5
2DE
330
90
100
AcDbEntity
  8
0
 62
     3
100
AcDbLine
 10
1533.196189083795
 20
973.9673913043484
 30
0.0
 11
1533.196189083795
 21
793.9673913043486
 31
0.0
  0
LINE
  5
2DF
330
90
100
AcDbEntity
  8
0
 62
     3
100
AcDbLine
 10
1408.196189083795
 20
793.9673913043486
 30
0.0
 11
1533.196189083795
 21
793.9673913043486
 31
0.0
  0
LINE
  5
2E0
330
90
100
AcDbEntity
  8
0
 62
     3
100
AcDbLine
 10
248.1961890837957
 20
993.9673913043484
 30
0.0
 11
248.1961890837957
 21
983.9673913043484
 31
0.0
  0
LINE
  5
2E1
330
90
100
AcDbEntity
  8
0
 62
     3
100
AcDbLine
 10
248.1961890837957
 20
783.9673913043486
 30
0.0
 11
248.1961890837953
 21
741.4673913043486
 31
0.0
  0
LINE
  5
2E2
330
90
100
AcDbEntity
  8
0
 62
     3
100
AcDbLine
 10
248.1961890837944
 20
621.4673913043486
 30
0.0
 11
248.196189083794
 21
578.4673913043486
 31
0.0
  0
ELLIPSE
  5
2E3
330
90
100
AcDbEntity
  8
0
 62
     3
100
AcDbEllipse
 10
258.5949190837947
 20
883.9673913043484
 30
0.0
 11
-0.0001145631081271859
 21
-82.5999999999208
 31
0.0
210
0.0
220
0.0
230
1.0
 40
0.4364406779665327
 41
0.0000031778948158
 42
3.141597268568658
  0
LINE
  5
2E4
330
90
100
AcDbEntity
  8
0
  6
DASHED2
 62
     3
100
AcDbLine
 10
258.5949190837947
 20
801.3673913043482
 30
0.0
 11
308.7910690837953
 21
801.3673913043482
 31
0.0
  0
LINE
  5
2E5
330
90
100
AcDbEntity
  8
0
  6
DASHED2
 62
     3
100
AcDbLine
 10
258.5949190837947
 20
966.5673913043488
 30
0.0
 11
308.7910690837953
 21
966.5673913043488
 31
0.0
  0
LINE
  5
2E6
330
90
100
AcDbEntity
  8
0
  6
DASHED2
 62
     3
100
AcDbLine
 10
-347.675724148551
 20
983.9673913043484
 30
0.0
 11
-284.9774476955778
 21
982.475652449763
 31
0.0
  0
LINE
  5
2E7
330
90
100
AcDbEntity
  8
0
  6
DASHED2
 62
     3
100
AcDbLine
 10
-346.4862350686952
 20
783.995692994699
 30
0.0
 11
-284.9795722380576
 21
785.459130158934
 31
0.0
  0
LINE
  5
2E8
330
90
100
AcDbEntity
  8
0
  6
DASHED2
 62
     3
100
AcDbLine
 10
248.1961890837957
 20
983.9673913043484
 30
0.0
 11
248.1961890837957
 21
783.9673913043486
 31
0.0
  0
LINE
  5
2E9
330
90
100
AcDbEntity
  8
0
  6
DASHED2
 62
     3
100
AcDbLine
 10
248.1961890837953
 20
741.4673913043486
 30
0.0
 11
248.1961890837953
 21
621.4673913043486
 31
0.0
  0
LINE
  5
2EA
330
90
100
AcDbEntity
  8
0
  6
CENTER
 62
     9
100
AcDbLine
 10
1570.693073089113
 20
883.9673913043484
 30
0.0
 11
-515.4036258281699
 21
883.9673913043484
 31
0.0
  0
LINE
  5
2EB
330
90
100
AcDbEntity
  8
0
  6
CENTER
 62
     9
100
AcDbLine
 10
1457.746189083795
 20
952.4673913043484
 30
0.0
 11
1457.746189083795
 21
602.9444948345101
 31
0.0
  0
LINE
  5
2EC
330
90
100
AcDbEntity
  8
0
  6
CENTER
 62
     9
100
AcDbLine
 10
1570.693073089113
 20
783.9673913043486
 30
0.0
 11
519.0339369055491
 21
783.9673913043486
 31
0.0
  0
LINE
  5
2ED
330
90
100
AcDbEntity
  8
0
  6
CENTER
 62
     9
100
AcDbLine
 10
258.5949190837947
 20
1003.920151304349
 30
0.0
 11
258.5949190837947
 21
767.3908913043493
 31
0.0
  0
LINE
  5
2EE
330
90
100
AcDbEntity
  8
0
  6
CENTER
 62
     9
100
AcDbLine
 10
1503.796189083795
 20
952.4673913043484
 30
0.0
 11
1503.796189083795
 21
815.4673913043486
 31
0.0
  0
LINE
  5
2EF
330
90
100
AcDbEntity
  8
0
  6
CENTER
 62
     9
100
AcDbLine
 10
-347.6735996060712
 20
1026.32857354286
 30
0.0
 11
-347.675724148551
 21
723.1494010767079
 31
0.0
  0
LINE
  5
2F0
330
90
100
AcDbEntity
  8
0
  6
CENTER
 62
     9
100
AcDbLine
 10
83.54617061363956
 20
681.4673913043486
 30
0.0
 11
1570.693073089113
 21
681.4673913043486
 31
0.0
  0
LINE
  5
2F1
330
90
100
AcDbEntity
  8
0
  6
CENTER
 62
     9
100
AcDbLine
 10
379.3961890837957
 20
736.4673913043486
 30
0.0
 11
379.3961890837957
 21
766.4673913043486
 31
0.0
  0
LINE
  5
2F2
330
90
100
AcDbEntity
  8
0
  6
CENTER
 62
     9
100
AcDbLine
 10
364.3961890837957
 20
751.4673913043486
 30
0.0
 11
394.3961890837957
 21
751.4673913043486
 31
0.0
  0
LINE
  5
2F3
330
90
100
AcDbEntity
  8
0
  6
CENTER
 62
     9
100
AcDbLine
 10
289.3961890837957
 20
736.4673913043486
 30
0.0
 11
289.3961890837957
 21
766.4673913043486
 31
0.0
  0
LINE
  5
2F4
330
90
100
AcDbEntity
  8
0
  6
CENTER
 62
     9
100
AcDbLine
 10
274.3961890837957
 20
751.4673913043486
 30
0.0
 11
304.3961890837957
 21
751.4673913043486
 31
0.0
  0
LINE
  5
2F5
330
90
100
AcDbEntity
  8
0
  6
CENTER
 62
     9
100
AcDbLine
 10
289.3961890837957
 20
596.4673913043486
 30
0.0
 11
289.3961890837957
 21
626.4673913043486
 31
0.0
  0
LINE
  5
2F6
330
90
100
AcDbEntity
  8
0
  6
CENTER
 62
     9
100
AcDbLine
 10
274.3961890837957
 20
611.4673913043486
 30
0.0
 11
304.3961890837957
 21
611.4673913043486
 31
0.0
  0
LINE
  5
2F7
330
90
100
AcDbEntity
  8
0
  6
CENTER
 62
     9
100
AcDbLine
 10
379.3961890837957
 20
596.4673913043486
 30
0.0
 11
379.3961890837957
 21
626.4673913043486
 31
0.0
  0
LINE
  5
2F8
330
90
100
AcDbEntity
  8
0
  6
CENTER
 62
     9
100
AcDbLine
 10
364.3961890837957
 20
611.4673913043486
 30
0.0
 11
394.3961890837957
 21
611.4673913043486
 31
0.0
  0
LINE
  5
2F9
330
90
100
AcDbEntity
  8
0
  6
CENTER
 62
     9
100
AcDbLine
 10
437.0461890837955
 20
774.0819913043487
 30
0.0
 11
437.0461890837955
 21
581.2466747108405
 31
0.0
  0
LINE
  5
2FA
330
90
100
AcDbEntity
  8
0
 62
     7
100
AcDbLine
 10
522.1961890837957
 20
983.9673913043484
 30
0.0
 11
528.1961890837957
 21
983.9673913043484
 31
0.0
  0
LINE
  5
2FB
330
90
100
AcDbEntity
  8
0
 62
     7
100
AcDbLine
 10
522.1961890837957
 20
983.9673913043484
 30
0.0
 11
522.1961890837957
 21
791.4673913043486
 31
0.0
  0
LINE
  5
2FC
330
90
100
AcDbEntity
  8
0
 62
     7
100
AcDbLine
 10
208.3987590837951
 20
983.9673913043484
 30
0.0
 11
308.7910690837953
 21
983.9673913043484
 31
0.0
  0
LINE
  5
2FD
330
90
100
AcDbEntity
  8
0
 62
     7
100
AcDbLine
 10
298.3987590837951
 20
983.9673913043484
 30
0.0
 11
298.3987590837951
 21
783.9673913043486
 31
0.0
  0
LINE
  5
2FE
330
90
100
AcDbEntity
  8
0
 62
     7
100
AcDbLine
 10
303.5949190837947
 20
783.9673913043486
 30
0.0
 11
303.5949190837947
 21
983.9673913043484
 31
0.0
  0
LINE
  5
2FF
330
90
100
AcDbEntity
  8
0
 62
     7
100
AcDbLine
 10
208.3987590837951
 20
800.173066613898
 30
0.0
 11
208.3987590837951
 21
783.9673913043486
 31
0.0
  0
LINE
  5
300
330
90
100
AcDbEntity
  8
0
 62
     7
100
AcDbLine
 10
208.3987590837951
 20
983.9673913043484
 30
0.0
 11
208.3987590837951
 21
967.761715994799
 31
0.0
  0
LINE
  5
301
330
90
100
AcDbEntity
  8
0
 62
     7
100
AcDbLine
 10
528.1961890837957
 20
791.4673913043486
 30
0.0
 11
522.1961890837957
 21
791.4673913043486
 31
0.0
  0
LINE
  5
302
330
90
100
AcDbEntity
  8
0
 62
     7
100
AcDbLine
 10
208.3987590837951
 20
783.9673913043486
 30
0.0
 11
308.7910690837953
 21
783.9673913043486
 31
0.0
  0
LINE
  5
303
330
90
100
AcDbEntity
  8
0
 62
     7
100
AcDbLine
 10
308.7910690837953
 20
983.9673913043484
 30
0.0
 11
308.7910690837953
 21
783.9673913043486
 31
0.0
  0
LINE
  5
304
330
90
100
AcDbEntity
  8
0
 62
     7
100
AcDbLine
 10
248.1961890837957
 20
778.9673913043486
 30
0.0
 11
528.1961890837957
 21
778.9673913043486
 31
0.0
  0
LINE
  5
305
330
90
100
AcDbEntity
  8
0
 62
     7
100
AcDbLine
 10
-347.675724148551
 20
783.9673913043486
 30
0.0
 11
-346.4862350686952
 21
783.995692994699
 31
0.0
  0
LINE
  5
306
330
90
100
AcDbEntity
  8
0
 62
     7
100
AcDbLine
 10
398.1961890837957
 20
728.9673913043486
 30
0.0
 11
398.1961890837957
 21
778.9673913043486
 31
0.0
  0
LINE
  5
307
330
90
100
AcDbEntity
  8
0
 62
     7
100
AcDbLine
 10
398.1961890837957
 20
778.9673949979211
 30
0.0
 11
398.1961890837957
 21
573.9673913043486
 31
0.0
  0
CIRCLE
  5
308
330
90
100
AcDbEntity
  8
0
 62
     7
100
AcDbCircle
 10
289.3961890837957
 20
751.4673913043486
 30
0.0
 40
5.5
  0
CIRCLE
  5
309
330
90
100
AcDbEntity
  8
0
 62
     7
100
AcDbCircle
 10
289.3961890837957
 20
611.4673913043486
 30
0.0
 40
5.5
  0
LINE
  5
30A
330
90
100
AcDbEntity
  8
0
 62
     7
100
AcDbLine
 10
274.3961890837957
 20
621.4673913043486
 30
0.0
 11
274.3961890837957
 21
594.4673913043486
 31
0.0
  0
LINE
  5
30B
330
90
100
AcDbEntity
  8
0
 62
     7
100
AcDbLine
 10
274.3961890837957
 20
594.4673913043486
 30
0.0
 11
394.3961890837957
 21
594.4673913043486
 31
0.0
  0
LINE
  5
30C
330
90
100
AcDbEntity
  8
0
 62
     7
100
AcDbLine
 10
274.3961890837957
 20
768.4673913043486
 30
0.0
 11
394.3961890837957
 21
768.4673913043486
 31
0.0
  0
LINE
  5
30D
330
90
100
AcDbEntity
  8
0
 62
     7
100
AcDbLine
 10
274.3961890837957
 20
768.4673913043486
 30
0.0
 11
274.3961890837957
 21
741.4673913043486
 31
0.0
  0
LINE
  5
30E
330
90
100
AcDbEntity
  8
0
 62
     7
100
AcDbLine
 10
394.3961890837957
 20
768.4673913043486
 30
0.0
 11
394.3961890837957
 21
594.4673913043486
 31
0.0
  0
LINE
  5
30F
330
90
100
AcDbEntity
  8
0
 62
     7
100
AcDbLine
 10
388.3961890837957
 20
717.4673913043486
 30
0.0
 11
388.3961890837957
 21
645.4673913043486
 31
0.0
  0
LINE
  5
310
330
90
100
AcDbEntity
  8
0
 62
     7
100
AcDbLine
 10
201.8974290837955
 20
741.4673913043486
 30
0.0
 11
293.3974290837955
 21
741.4673913043486
 31
0.0
  0
LINE
  5
311
330
90
100
AcDbEntity
  8
0
 62
     7
100
AcDbLine
 10
201.8974290837955
 20
621.4673913043486
 30
0.0
 11
187.3974290837955
 21
621.4673913043486
 31
0.0
  0
LINE
  5
312
330
90
100
AcDbEntity
  8
0
 62
     7
100
AcDbLine
 10
187.3974290837955
 20
741.4673913043486
 30
0.0
 11
201.8974290837955
 21
741.4673913043486
 31
0.0
  0
LINE
  5
313
330
90
100
AcDbEntity
  8
0
 62
     7
100
AcDbLine
 10
187.3974290837955
 20
621.4673913043486
 30
0.0
 11
160.3974290837957
 21
621.4673913043486
 31
0.0
  0
LINE
  5
314
330
90
100
AcDbEntity
  8
0
 62
     7
100
AcDbLine
 10
160.3974290837957
 20
741.4673913043486
 30
0.0
 11
187.3974290837955
 21
741.4673913043486
 31
0.0
  0
LINE
  5
315
330
90
100
AcDbEntity
  8
0
 62
     7
100
AcDbLine
 10
124.6903440837955
 20
616.4673913043486
 30
0.0
 11
160.3974290837957
 21
616.4673913043486
 31
0.0
  0
LINE
  5
316
330
90
100
AcDbEntity
  8
0
 62
     7
100
AcDbLine
 10
124.6903440837955
 20
746.4673913043486
 30
0.0
 11
160.3974290837957
 21
746.4673913043486
 31
0.0
  0
LINE
  5
317
330
90
100
AcDbEntity
  8
0
 62
     7
100
AcDbLine
 10
160.3974290837957
 20
616.4673913043486
 30
0.0
 11
160.3974290837957
 21
746.4673913043486
 31
0.0
  0
LINE
  5
318
330
90
100
AcDbEntity
  8
0
 62
     7
100
AcDbLine
 10
120.3974290837957
 20
741.4673913043486
 30
0.0
 11
120.3974290837957
 21
621.4673913043486
 31
0.0
  0
ARC
  5
319
330
90
100
AcDbEntity
  8
0
 62
     7
100
AcDbCircle
 10
124.6903440837955
 20
631.4673913043486
 30
0.0
 40
15.0
100
AcDbArc
 50
209.9999999999605
 51
269.999999999949
  0
LINE
  5
31A
330
90
100
AcDbEntity
  8
0
 62
     7
100
AcDbLine
 10
111.6999640837958
 20
623.9673913043486
 30
0.0
 11
108.3073540837956
 21
629.8435613043486
 31
0.0
  0
ARC
  5
31B
330
90
100
AcDbEntity
  8
0
 62
     7
100
AcDbCircle
 10
124.6903440837955
 20
731.4673913043486
 30
0.0
 40
15.0
100
AcDbArc
 50
89.9999999999829
 51
149.9999999999718
  0
LINE
  5
31C
330
90
100
AcDbEntity
  8
0
 62
     7
100
AcDbLine
 10
111.6999640837958
 20
738.9673913043486
 30
0.0
 11
108.3073540837956
 21
733.0912213043486
 31
0.0
  0
ARC
  5
31D
330
90
100
AcDbEntity
  8
0
 62
     7
100
AcDbCircle
 10
103.9772290837957
 20
627.3435613043486
 30
0.0
 40
5.0
100
AcDbArc
 50
29.99999999999448
 51
69.99999999998677
  0
LINE
  5
31E
330
90
100
AcDbEntity
  8
0
 62
     7
100
AcDbLine
 10
105.6873290837957
 20
632.0420263043486
 30
0.0
 11
103.6873290837957
 21
632.7699663043486
 31
0.0
  0
ARC
  5
31F
330
90
100
AcDbEntity
  8
0
 62
     7
100
AcDbCircle
 10
105.3974290837957
 20
637.4684263043486
 30
0.0
 40
5.0
100
AcDbArc
 50
179.9999999999658
 51
249.9999999999527
  0
LINE
  5
320
330
90
100
AcDbEntity
  8
0
 62
     7
100
AcDbLine
 10
100.3974290837957
 20
637.4684263043486
 30
0.0
 11
100.3974290837957
 21
725.4663513043487
 31
0.0
  0
ARC
  5
321
330
90
100
AcDbEntity
  8
0
 62
     7
100
AcDbCircle
 10
103.9772290837957
 20
735.5912213043486
 30
0.0
 40
5.0
100
AcDbArc
 50
289.9999999999448
 51
329.999999999938
  0
LINE
  5
322
330
90
100
AcDbEntity
  8
0
 62
     7
100
AcDbLine
 10
105.6873290837957
 20
730.8927563043484
 30
0.0
 11
103.6873290837957
 21
730.1648163043484
 31
0.0
  0
ARC
  5
323
330
90
100
AcDbEntity
  8
0
 62
     7
100
AcDbCircle
 10
105.3974290837957
 20
725.4663513043487
 30
0.0
 40
5.0
100
AcDbArc
 50
109.9999999999795
 51
179.9999999999658
  0
LINE
  5
324
330
90
100
AcDbEntity
  8
0
 62
     7
100
AcDbLine
 10
107.3974290837955
 20
728.9673913043486
 30
0.0
 11
107.3974290837955
 21
633.9673913043486
 31
0.0
  0
LINE
  5
325
330
90
100
AcDbEntity
  8
0
 62
     7
100
AcDbLine
 10
201.8974290837955
 20
621.4673913043486
 30
0.0
 11
293.3974290837955
 21
621.4673913043486
 31
0.0
  0
LINE
  5
326
330
90
100
AcDbEntity
  8
0
 62
     7
100
AcDbLine
 10
293.3974290837955
 20
621.4673913043486
 30
0.0
 11
293.3974290837955
 21
741.4673913043486
 31
0.0
  0
LINE
  5
327
330
90
100
AcDbEntity
  8
0
 62
     7
100
AcDbLine
 10
383.3974290837955
 20
756.5675763043486
 30
0.0
 11
383.3974290837955
 21
606.3672113043486
 31
0.0
  0
ARC
  5
328
330
90
100
AcDbEntity
  8
0
 62
     7
100
AcDbCircle
 10
395.3961890837957
 20
667.4673913043486
 30
0.0
 40
1.0
100
AcDbArc
 50
269.9999999999471
 51
359.9999999999349
  0
LINE
  5
329
330
90
100
AcDbEntity
  8
0
 62
     7
100
AcDbLine
 10
396.3961890837957
 20
667.4673913043486
 30
0.0
 11
396.3961890837957
 21
695.4673913043486
 31
0.0
  0
LINE
  5
32A
330
90
100
AcDbEntity
  8
0
 62
     7
100
AcDbLine
 10
395.3961890837957
 20
666.4673913043486
 30
0.0
 11
394.3961890837957
 21
666.4673913043486
 31
0.0
  0
ARC
  5
32B
330
90
100
AcDbEntity
  8
0
 62
     7
100
AcDbCircle
 10
395.3961890837957
 20
695.4673913043486
 30
0.0
 40
1.0
100
AcDbArc
 50
0.0
 51
89.99999999998371
  0
LINE
  5
32C
330
90
100
AcDbEntity
  8
0
 62
     7
100
AcDbLine
 10
395.3961890837957
 20
696.4673913043486
 30
0.0
 11
394.3961890837957
 21
696.4673913043486
 31
0.0
  0
LINE
  5
32D
330
90
100
AcDbEntity
  8
0
 62
     7
100
AcDbLine
 10
388.2608690837956
 20
741.9043813043485
 30
0.0
 11
384.0235490837956
 21
755.4638113043487
 31
0.0
  0
ARC
  5
32E
330
90
100
AcDbEntity
  8
0
 62
     7
100
AcDbCircle
 10
385.3974290837957
 20
741.0095563043484
 30
0.0
 40
3.0
100
AcDbArc
 50
0.0
 51
17.35402499999639
  0
LINE
  5
32F
330
90
100
AcDbEntity
  8
0
 62
     7
100
AcDbLine
 10
388.3974290837955
 20
741.0095563043484
 30
0.0
 11
388.3961890837957
 21
717.4673913043486
 31
0.0
  0
ARC
  5
330
330
90
100
AcDbEntity
  8
0
 62
     7
100
AcDbCircle
 10
381.1601140837956
 20
754.5689713043486
 30
0.0
 40
3.0
100
AcDbArc
 50
17.35402499999639
 51
87.31622499998343
  0
LINE
  5
331
330
90
100
AcDbEntity
  8
0
 62
     7
100
AcDbLine
 10
381.3005840837957
 20
757.5656813043485
 30
0.0
 11
319.3974290837955
 21
760.4673913043486
 31
0.0
  0
LINE
  5
332
330
90
100
AcDbEntity
  8
0
 62
     7
100
AcDbLine
 10
319.3974290837955
 20
760.4673913043486
 30
0.0
 11
319.3974290837955
 21
602.4673913043486
 31
0.0
  0
LINE
  5
333
330
90
100
AcDbEntity
  8
0
 62
     7
100
AcDbLine
 10
388.3974290837955
 20
621.9252263043486
 30
0.0
 11
388.3961890837957
 21
645.4673913043486
 31
0.0
  0
ARC
  5
334
330
90
100
AcDbEntity
  8
0
 62
     7
100
AcDbCircle
 10
385.3974290837957
 20
621.9252263043486
 30
0.0
 40
3.0
100
AcDbArc
 50
342.6459750000036
 51
360.0
  0
LINE
  5
335
330
90
100
AcDbEntity
  8
0
 62
     7
100
AcDbLine
 10
300.3974290837955
 20
621.4673913043486
 30
0.0
 11
293.3974290837955
 21
621.4673913043486
 31
0.0
  0
ARC
  5
336
330
90
100
AcDbEntity
  8
0
 62
     7
100
AcDbCircle
 10
300.3974290837955
 20
618.4673913043486
 30
0.0
 40
3.0
100
AcDbArc
 50
0.0
 51
89.99999999998236
  0
LINE
  5
337
330
90
100
AcDbEntity
  8
0
 62
     7
100
AcDbLine
 10
309.1880340837956
 20
602.8239113043486
 30
0.0
 11
319.3974290837955
 21
602.4673913043486
 31
0.0
  0
ARC
  5
338
330
90
100
AcDbEntity
  8
0
 62
     7
100
AcDbCircle
 10
309.3974290837955
 20
608.8202563043485
 30
0.0
 40
6.0
100
AcDbArc
 50
179.9999999999661
 51
267.9999999999491
  0
LINE
  5
339
330
90
100
AcDbEntity
  8
0
 62
     7
100
AcDbLine
 10
381.3005840837957
 20
605.3691013043485
 30
0.0
 11
319.3974290837955
 21
602.4673913043486
 31
0.0
  0
ARC
  5
33A
330
90
100
AcDbEntity
  8
0
 62
     7
100
AcDbCircle
 10
381.1601140837956
 20
608.3658113043485
 30
0.0
 40
3.0
100
AcDbArc
 50
272.6837749999486
 51
342.6459749999354
  0
ARC
  5
33B
330
90
100
AcDbEntity
  8
0
 62
     7
100
AcDbCircle
 10
391.3961890837957
 20
710.2247513043484
 30
0.0
 40
3.0
100
AcDbArc
 50
0.0
 51
44.99999999999137
  0
LINE
  5
33C
330
90
100
AcDbEntity
  8
0
 62
     7
100
AcDbLine
 10
393.5175090837956
 20
712.3460713043486
 30
0.0
 11
388.3961890837957
 21
717.4673913043486
 31
0.0
  0
ARC
  5
33D
330
90
100
AcDbEntity
  8
0
 62
     7
100
AcDbCircle
 10
391.3961890837957
 20
652.7100313043486
 30
0.0
 40
3.0
100
AcDbArc
 50
314.9999999999405
 51
359.9999999999322
  0
LINE
  5
33E
330
90
100
AcDbEntity
  8
0
 62
     7
100
AcDbLine
 10
393.5175090837956
 20
650.5887113043486
 30
0.0
 11
389.2748640837956
 21
646.3460713043486
 31
0.0
  0
ARC
  5
33F
330
90
100
AcDbEntity
  8
0
 62
     7
100
AcDbCircle
 10
391.3961890837957
 20
644.2247513043486
 30
0.0
 40
3.0
100
AcDbArc
 50
134.9999999999741
 51
179.9999999999647
  0
ARC
  5
340
330
90
100
AcDbEntity
  8
0
 62
     7
100
AcDbCircle
 10
309.3974290837955
 20
754.1145263043485
 30
0.0
 40
6.0
100
AcDbArc
 50
91.99999999998234
 51
179.9999999999661
  0
LINE
  5
341
330
90
100
AcDbEntity
  8
0
 62
     7
100
AcDbLine
 10
303.3974290837955
 20
754.1145263043485
 30
0.0
 11
303.3974290837955
 21
608.9673913043486
 31
0.0
  0
LINE
  5
342
330
90
100
AcDbEntity
  8
0
 62
     7
100
AcDbLine
 10
309.1880340837956
 20
760.1108713043485
 30
0.0
 11
319.3974290837955
 21
760.4673913043486
 31
0.0
  0
ARC
  5
343
330
90
100
AcDbEntity
  8
0
 62
     7
100
AcDbCircle
 10
300.3974290837955
 20
744.4673913043486
 30
0.0
 40
3.0
100
AcDbArc
 50
269.9999999999484
 51
359.9999999999322
  0
LINE
  5
344
330
90
100
AcDbEntity
  8
0
 62
     7
100
AcDbLine
 10
300.3974290837955
 20
741.4673913043486
 30
0.0
 11
293.3974290837955
 21
741.4673913043486
 31
0.0
  0
LINE
  5
345
330
90
100
AcDbEntity
  8
0
 62
     7
100
AcDbLine
 10
388.2608690837956
 20
621.0304013043486
 30
0.0
 11
384.0235490837956
 21
607.4709713043486
 31
0.0
  0
LINE
  5
346
330
90
100
AcDbEntity
  8
0
  6
DASHED2
 62
     7
100
AcDbLine
 10
218.7910690837953
 20
798.2551413043481
 30
0.0
 11
218.7910690837953
 21
783.9673913043486
 31
0.0
  0
LINE
  5
347
330
90
100
AcDbEntity
  8
0
  6
DASHED2
 62
     7
100
AcDbLine
 10
218.7910690837953
 20
983.9673913043484
 30
0.0
 11
218.7910690837953
 21
967.514450219413
 31
0.0
  0
LINE
  5
348
330
90
100
AcDbEntity
  8
0
  6
DASHED2
 62
     7
100
AcDbLine
 10
213.5949190837947
 20
967.6380829881405
 30
0.0
 11
213.5949190837947
 21
983.9673913043484
 31
0.0
  0
LINE
  5
349
330
90
100
AcDbEntity
  8
0
  6
DASHED2
 62
     7
100
AcDbLine
 10
213.5949190837947
 20
783.9673913043486
 30
0.0
 11
213.5949190837947
 21
800.2966996205565
 31
0.0
  0
LINE
  5
34A
330
90
100
AcDbEntity
  8
0
  6
DASHED2
 62
     7
100
AcDbLine
 10
248.1961890837939
 20
578.9673949979193
 30
0.0
 11
248.1961890837957
 21
573.9673913043486
 31
0.0
  0
CIRCLE
  5
34B
330
90
100
AcDbEntity
  8
0
  6
DASHED2
 62
     7
100
AcDbCircle
 10
379.3961890837957
 20
751.4673913043486
 30
0.0
 40
5.5
  0
CIRCLE
  5
34C
330
90
100
AcDbEntity
  8
0
  6
DASHED2
 62
     7
100
AcDbCircle
 10
379.3961890837957
 20
611.4673913043486
 30
0.0
 40
5.5
  0
LINE
  5
34D
330
90
100
AcDbEntity
  8
0
  6
DASHED2
 62
     7
100
AcDbLine
 10
440.3961890837954
 20
667.4673913043486
 30
0.0
 11
441.3961890837957
 21
668.4673913043486
 31
0.0
  0
LINE
  5
34E
330
90
100
AcDbEntity
  8
0
  6
DASHED2
 62
     7
100
AcDbLine
 10
441.3961890837957
 20
668.4673913043486
 30
0.0
 11
441.3961890837957
 21
694.4673913043486
 31
0.0
  0
LINE
  5
34F
330
90
100
AcDbEntity
  8
0
  6
DASHED2
 62
     7
100
AcDbLine
 10
440.3961890837954
 20
667.4673913043486
 30
0.0
 11
396.3961890837957
 21
667.4673913043486
 31
0.0
  0
LINE
  5
350
330
90
100
AcDbEntity
  8
0
  6
DASHED2
 62
     7
100
AcDbLine
 10
441.3961890837957
 20
694.4673913043486
 30
0.0
 11
440.3961890837954
 21
695.4673913043486
 31
0.0
  0
LINE
  5
351
330
90
100
AcDbEntity
  8
0
  6
DASHED2
 62
     7
100
AcDbLine
 10
440.3961890837954
 20
695.4673913043486
 30
0.0
 11
396.3961890837957
 21
695.4673913043486
 31
0.0
  0
LINE
  5
352
330
90
100
AcDbEntity
  8
0
  6
DIVIDE
 62
     2
100
AcDbLine
 10
526.5961890837954
 20
573.9673913043486
 30
0.0
 11
528.1961890837957
 21
573.9673913043486
 31
0.0
  0
LINE
  5
353
330
90
100
AcDbEntity
  8
0
 62
     2
100
AcDbLine
 10
1396.196189083796
 20
723.9673913043486
 30
0.0
 11
1396.196189083796
 21
681.4673913043486
 31
0.0
  0
LINE
  5
354
330
90
100
AcDbEntity
  8
0
 62
     2
100
AcDbLine
 10
400.3461890837957
 20
780.5673913043487
 30
0.0
 11
460.3461890837957
 21
780.5673913043487
 31
0.0
  0
LINE
  5
355
330
90
100
AcDbEntity
  8
0
 62
     2
100
AcDbLine
 10
460.3461890837957
 20
572.3673913043486
 30
0.0
 11
460.3461890837957
 21
780.5673913043487
 31
0.0
  0
LINE
  5
356
330
90
100
AcDbEntity
  8
0
 62
     2
100
AcDbLine
 10
400.3461890837957
 20
572.3673913043486
 30
0.0
 11
400.3461890837957
 21
780.5673913043487
 31
0.0
  0
LINE
  5
357
330
90
100
AcDbEntity
  8
0
 62
     2
100
AcDbLine
 10
400.3461890837957
 20
572.3673913043486
 30
0.0
 11
460.3461890837957
 21
572.3673913043486
 31
0.0
  0
LINE
  5
358
330
90
100
AcDbEntity
  8
0
 62
     4
100
AcDbLine
 10
1396.196189083796
 20
975.2434463043487
 30
0.0
 11
540.1961890837956
 21
975.2434463043487
 31
0.0
  0
LINE
  5
359
330
90
100
AcDbEntity
  8
0
 62
     4
100
AcDbLine
 10
1396.196189083796
 20
977.9673913043484
 30
0.0
 11
540.1961890837956
 21
977.9673913043484
 31
0.0
  0
LINE
  5
35A
330
90
100
AcDbEntity
  8
0
 62
     4
100
AcDbLine
 10
1271.196189083796
 20
939.6031863043486
 30
0.0
 11
1271.196189083796
 21
977.9673913043484
 31
0.0
  0
LINE
  5
35B
330
90
100
AcDbEntity
  8
0
  6
DASHED2
 62
     4
100
AcDbLine
 10
540.1961890837957
 20
939.6031863043486
 30
0.0
 11
1396.196189083795
 21
939.6031863043486
 31
0.0
  0
LINE
  5
35C
330
90
100
AcDbEntity
  8
0
  6
DIVIDE
 62
     1
100
AcDbLine
 10
404.9819490837953
 20
939.2173913043489
 30
0.0
 11
444.9819490837955
 21
828.7173913043482
 31
0.0
  0
LINE
  5
35D
330
90
100
AcDbEntity
  8
0
  6
DIVIDE
 62
     1
100
AcDbLine
 10
324.9819490837956
 20
939.2173913043489
 30
0.0
 11
364.9819490837958
 21
828.7173913043482
 31
0.0
  0
LINE
  5
35E
330
90
100
AcDbEntity
  8
0
  6
DIVIDE
 62
     1
100
AcDbLine
 10
484.9819490837953
 20
939.2173913043489
 30
0.0
 11
524.9819490837955
 21
828.7173913043482
 31
0.0
  0
LINE
  5
35F
330
90
100
AcDbEntity
  8
0
  6
DIVIDE
 62
     1
100
AcDbLine
 10
564.9819490837953
 20
939.2173913043489
 30
0.0
 11
604.9819490837955
 21
828.7173913043482
 31
0.0
  0
LINE
  5
360
330
90
100
AcDbEntity
  8
0
  6
DIVIDE
 62
     1
100
AcDbLine
 10
644.9819490837953
 20
939.2173913043489
 30
0.0
 11
684.9819490837955
 21
828.7173913043482
 31
0.0
  0
LINE
  5
361
330
90
100
AcDbEntity
  8
0
  6
DIVIDE
 62
     1
100
AcDbLine
 10
724.9819490837948
 20
939.2173913043489
 30
0.0
 11
764.981949083795
 21
828.7173913043482
 31
0.0
  0
LINE
  5
362
330
90
100
AcDbEntity
  8
0
  6
DIVIDE
 62
     1
100
AcDbLine
 10
804.9819490837944
 20
939.2173913043489
 30
0.0
 11
844.9819490837946
 21
828.7173913043482
 31
0.0
  0
LINE
  5
363
330
90
100
AcDbEntity
  8
0
  6
DIVIDE
 62
     1
100
AcDbLine
 10
884.9819490837945
 20
939.2173913043489
 30
0.0
 11
924.9819490837948
 21
828.7173913043482
 31
0.0
  0
LINE
  5
364
330
90
100
AcDbEntity
  8
0
  6
DIVIDE
 62
     1
100
AcDbLine
 10
964.9819490837944
 20
939.2173913043489
 30
0.0
 11
1004.981949083795
 21
828.7173913043482
 31
0.0
  0
LINE
  5
365
330
90
100
AcDbEntity
  8
0
  6
DIVIDE
 62
     1
100
AcDbLine
 10
1044.981949083795
 20
939.2173913043489
 30
0.0
 11
1084.981949083795
 21
828.7173913043482
 31
0.0
  0
LINE
  5
366
330
90
100
AcDbEntity
  8
0
  6
DIVIDE
 62
     1
100
AcDbLine
 10
1124.981949083795
 20
939.2173913043489
 30
0.0
 11
1164.981949083795
 21
828.7173913043482
 31
0.0
  0
LINE
  5
367
330
90
100
AcDbEntity
  8
0
  6
DIVIDE
 62
     1
100
AcDbLine
 10
1204.981949083795
 20
939.2173913043489
 30
0.0
 11
1244.981949083796
 21
828.7173913043482
 31
0.0
  0
LINE
  5
368
330
90
100
AcDbEntity
  8
0
  6
DIVIDE
 62
     1
100
AcDbLine
 10
1284.981949083795
 20
939.2173913043489
 30
0.0
 11
1324.981949083795
 21
828.7173913043482
 31
0.0
  0
LINE
  5
369
330
90
100
AcDbEntity
  8
0
  6
DIVIDE
 62
     1
100
AcDbLine
 10
364.9819490837958
 20
828.7173913043482
 30
0.0
 11
404.9819490837953
 21
939.2173913043489
 31
0.0
  0
LINE
  5
36A
330
90
100
AcDbEntity
  8
0
  6
DIVIDE
 62
     1
100
AcDbLine
 10
444.9819490837955
 20
828.7173913043482
 30
0.0
 11
484.981949083795
 21
939.2173913043489
 31
0.0
  0
LINE
  5
36B
330
90
100
AcDbEntity
  8
0
  6
DIVIDE
 62
     1
100
AcDbLine
 10
524.9819490837955
 20
828.7173913043482
 30
0.0
 11
564.981949083795
 21
939.2173913043489
 31
0.0
  0
LINE
  5
36C
330
90
100
AcDbEntity
  8
0
  6
DIVIDE
 62
     1
100
AcDbLine
 10
604.9819490837955
 20
828.7173913043482
 30
0.0
 11
644.981949083795
 21
939.2173913043489
 31
0.0
  0
LINE
  5
36D
330
90
100
AcDbEntity
  8
0
  6
DIVIDE
 62
     1
100
AcDbLine
 10
684.9819490837955
 20
828.7173913043482
 30
0.0
 11
724.981949083795
 21
939.2173913043489
 31
0.0
  0
LINE
  5
36E
330
90
100
AcDbEntity
  8
0
  6
DIVIDE
 62
     1
100
AcDbLine
 10
764.981949083795
 20
828.7173913043482
 30
0.0
 11
804.9819490837946
 21
939.2173913043489
 31
0.0
  0
LINE
  5
36F
330
90
100
AcDbEntity
  8
0
  6
DIVIDE
 62
     1
100
AcDbLine
 10
844.9819490837946
 20
828.7173913043482
 30
0.0
 11
884.9819490837941
 21
939.2173913043489
 31
0.0
  0
LINE
  5
370
330
90
100
AcDbEntity
  8
0
  6
DIVIDE
 62
     1
100
AcDbLine
 10
924.9819490837948
 20
828.7173913043482
 30
0.0
 11
964.9819490837941
 21
939.2173913043489
 31
0.0
  0
LINE
  5
371
330
90
100
AcDbEntity
  8
0
  6
DIVIDE
 62
     1
100
AcDbLine
 10
1004.981949083795
 20
828.7173913043482
 30
0.0
 11
1044.981949083794
 21
939.2173913043489
 31
0.0
  0
LINE
  5
372
330
90
100
AcDbEntity
  8
0
  6
DIVIDE
 62
     1
100
AcDbLine
 10
1084.981949083795
 20
828.7173913043482
 30
0.0
 11
1124.981949083794
 21
939.2173913043489
 31
0.0
  0
LINE
  5
373
330
90
100
AcDbEntity
  8
0
  6
DIVIDE
 62
     1
100
AcDbLine
 10
1164.981949083795
 20
828.7173913043482
 30
0.0
 11
1204.981949083794
 21
939.2173913043489
 31
0.0
  0
LINE
  5
374
330
90
100
AcDbEntity
  8
0
  6
DIVIDE
 62
     1
100
AcDbLine
 10
1244.981949083796
 20
828.7173913043482
 30
0.0
 11
1284.981949083795
 21
939.2173913043489
 31
0.0
  0
ELLIPSE
  5
375
330
90
100
AcDbEntity
  8
0
  6
DASHED2
 62
     7
100
AcDbEllipse
 10
258.5949190837947
 20
883.9673913043484
 30
0.0
 11
0.004055146810003407
 21
-82.59999990045924
 31
0.0
210
0.0
220
0.0
230
1.0
 40
0.4364406784166994
 41
3.141592653589779
 42
6.283072813557575
  0
ENDBLK
  5
92
330
90
100
AcDbEntity
  8
0
100
AcDbBlockEnd
  0
BLOCK
  5
94
330
93
100
AcDbEntity
  8
0
100
AcDbBlockBegin
  2
GROUP_13
 70
     0
 71
     0
 10
0.0
 20
0.0
 30
0.0
  3
GROUP_13
  1

  0
LINE
  5
37C
330
93
100
AcDbEntity
  8
0
  6
DIVIDE
 62
     2
100
AcDbLine
 10
896.1961890837954
 20
573.9673913043486
 30
0.0
 11
896.1961890837954
 21
987.9673913043484
 31
0.0
  0
LINE
  5
37D
330
93
100
AcDbEntity
  8
0
  6
DIVIDE
 62
     2
100
AcDbLine
 10
896.1961890837954
 20
987.9673913043484
 30
0.0
 11
1516.196189083796
 21
987.9673913043484
 31
0.0
  0
LINE
  5
37E
330
93
100
AcDbEntity
  8
0
  6
DIVIDE
 62
     2
100
AcDbLine
 10
896.1961890837954
 20
670.4725842449772
 30
0.0
 11
1046.196189083796
 21
670.4725842449772
 31
0.0
  0
LINE
  5
37F
330
93
100
AcDbEntity
  8
0
  6
DIVIDE
 62
     2
100
AcDbLine
 10
1046.196189083796
 20
670.4725842449772
 30
0.0
 11
1046.196189083796
 21
689.3130812258445
 31
0.0
  0
LINE
  5
380
330
93
100
AcDbEntity
  8
0
  6
DIVIDE
 62
     2
100
AcDbLine
 10
1046.196189083796
 20
689.3130812258445
 30
0.0
 11
1326.196189083796
 21
689.3130812258445
 31
0.0
  0
LINE
  5
381
330
93
100
AcDbEntity
  8
0
  6
DIVIDE
 62
     2
100
AcDbLine
 10
1396.196189083796
 20
632.1871613043488
 30
0.0
 11
896.1961890837954
 21
632.1871613043489
 31
0.0
  0
LINE
  5
382
330
93
100
AcDbEntity
  8
0
  6
DIVIDE
 62
     2
100
AcDbLine
 10
1326.196189083796
 20
985.6673913043487
 30
0.0
 11
1326.196189083796
 21
689.3130812258445
 31
0.0
  0
LINE
  5
383
330
93
100
AcDbEntity
  8
0
  6
DIVIDE
 62
     2
100
AcDbLine
 10
1326.196189083796
 20
689.3130812258445
 30
0.0
 11
1396.196189083796
 21
632.1871613043488
 31
0.0
  0
LINE
  5
384
330
93
100
AcDbEntity
  8
0
  6
DIVIDE
 62
     2
100
AcDbLine
 10
1396.196189083796
 20
632.1871613043488
 30
0.0
 11
1516.196189083796
 21
575.1746515337454
 31
0.0
  0
LINE
  5
385
330
93
100
AcDbEntity
  8
0
  6
DIVIDE
 62
     2
100
AcDbLine
 10
1396.196189083796
 20
632.1871613043488
 30
0.0
 11
1396.196189083796
 21
985.6673913043487
 31
0.0
  0
LINE
  5
386
330
93
100
AcDbEntity
  8
0
  6
DIVIDE
 62
     2
100
AcDbLine
 10
896.1961890837954
 20
573.9673913043486
 30
0.0
 11
1516.196189083796
 21
573.9673913043486
 31
0.0
  0
LINE
  5
387
330
93
100
AcDbEntity
  8
0
  6
DIVIDE
 62
     2
100
AcDbLine
 10
1516.196189083796
 20
573.9673913043486
 30
0.0
 11
1516.196189083796
 21
987.9673913043484
 31
0.0
  0
ENDBLK
  5
95
330
93
100
AcDbEntity
  8
0
100
AcDbBlockEnd
  0
BLOCK
  5
97
330
96
100
AcDbEntity
  8
0
100
AcDbBlockBegin
  2
GROUP_14
 70
     0
 71
     0
 10
0.0
 20
0.0
 30
0.0
  3
GROUP_14
  1

  0
LINE
  5
388
330
96
100
AcDbEntity
  8
0
 62
     7
100
AcDbLine
 10
-388.9774476955778
 20
1022.967391304348
 30
0.0
 11
-388.9774476955778
 21
1028.967391304348
 31
0.0
  0
LINE
  5
389
330
96
100
AcDbEntity
  8
0
 62
     7
100
AcDbLine
 10
-388.9774476955778
 20
1028.967391304348
 30
0.0
 11
-287.9774476955778
 21
1028.967391304348
 31
0.0
  0
LINE
  5
38A
330
96
100
AcDbEntity
  8
0
 62
     7
100
AcDbLine
 10
-278.9774476955778
 20
1019.967391304348
 30
0.0
 11
-278.9774476955778
 21
958.9673913043484
 31
0.0
  0
LINE
  5
38B
330
96
100
AcDbEntity
  8
0
 62
     7
100
AcDbLine
 10
-278.9774476955778
 20
958.9673913043484
 30
0.0
 11
-284.9774476955778
 21
958.9673913043484
 31
0.0
  0
LINE
  5
38C
330
96
100
AcDbEntity
  8
0
 62
     7
100
AcDbLine
 10
-284.9774476955778
 20
958.9673913043484
 30
0.0
 11
-284.9774476955778
 21
1019.967391304348
 31
0.0
  0
LINE
  5
38D
330
96
100
AcDbEntity
  8
0
 62
     7
100
AcDbLine
 10
-287.9774476955778
 20
1022.967391304348
 30
0.0
 11
-388.9774476955778
 21
1022.967391304348
 31
0.0
  0
ARC
  5
38E
330
96
100
AcDbEntity
  8
0
 62
     7
100
AcDbCircle
 10
-287.9774476955778
 20
1019.967391304348
 30
0.0
 40
3.0
100
AcDbArc
 50
0.0
 51
90.0
  0
ARC
  5
38F
330
96
100
AcDbEntity
  8
0
 62
     7
100
AcDbCircle
 10
-287.9774476955778
 20
1019.967391304348
 30
0.0
 40
9.0
100
AcDbArc
 50
0.0
 51
90.0
  0
ENDBLK
  5
98
330
96
100
AcDbEntity
  8
0
100
AcDbBlockEnd
  0
BLOCK
  5
9A
330
99
100
AcDbEntity
  8
0
100
AcDbBlockBegin
  2
GROUP_15
 70
     0
 71
     0
 10
0.0
 20
0.0
 30
0.0
  3
GROUP_15
  1

  0
LINE
  5
390
330
99
100
AcDbEntity
  8
0
  6
CENTER
 62
     9
100
AcDbLine
 10
270.6961890837956
 20
751.4673913043486
 30
0.0
 11
250.6961890837956
 21
751.4673913043486
 31
0.0
  0
LINE
  5
391
330
99
100
AcDbEntity
  8
0
  6
CENTER
 62
     9
100
AcDbLine
 10
260.6961890837956
 20
761.4673913043486
 30
0.0
 11
260.6961890837956
 21
741.4673913043486
 31
0.0
  0
ENDBLK
  5
9B
330
99
100
AcDbEntity
  8
0
100
AcDbBlockEnd
  0
BLOCK
  5
9D
330
9C
100
AcDbEntity
  8
0
100
AcDbBlockBegin
  2
GROUP_16
 70
     0
 71
     0
 10
0.0
 20
0.0
 30
0.0
  3
GROUP_16
  1

  0
LINE
  5
392
330
9C
100
AcDbEntity
  8
0
  6
CENTER
 62
     9
100
AcDbLine
 10
270.6961890837956
 20
611.4673913043486
 30
0.0
 11
250.6961890837956
 21
611.4673913043486
 31
0.0
  0
LINE
  5
393
330
9C
100
AcDbEntity
  8
0
  6
CENTER
 62
     9
100
AcDbLine
 10
260.6961890837956
 20
621.4673913043486
 30
0.0
 11
260.6961890837956
 21
601.4673913043486
 31
0.0
  0
ENDBLK
  5
9E
330
9C
100
AcDbEntity
  8
0
100
AcDbBlockEnd
  0
BLOCK
  5
A0
330
9F
100
AcDbEntity
  8
0
100
AcDbBlockBegin
  2
GROUP_17
 70
     0
 71
     0
 10
0.0
 20
0.0
 30
0.0
  3
GROUP_17
  1

  0
LINE
  5
394
330
9F
100
AcDbEntity
  8
0
  6
CENTER
 62
     9
100
AcDbLine
 10
420.6961890837956
 20
611.4673913043486
 30
0.0
 11
400.6961890837956
 21
611.4673913043486
 31
0.0
  0
LINE
  5
395
330
9F
100
AcDbEntity
  8
0
  6
CENTER
 62
     9
100
AcDbLine
 10
410.6961890837956
 20
621.4673913043486
 30
0.0
 11
410.6961890837956
 21
601.4673913043486
 31
0.0
  0
ENDBLK
  5
A1
330
9F
100
AcDbEntity
  8
0
100
AcDbBlockEnd
  0
BLOCK
  5
A3
330
A2
100
AcDbEntity
  8
0
100
AcDbBlockBegin
  2
GROUP_18
 70
     0
 71
     0
 10
0.0
 20
0.0
 30
0.0
  3
GROUP_18
  1

  0
LINE
  5
396
330
A2
100
AcDbEntity
  8
0
  6
CENTER
 62
     9
100
AcDbLine
 10
420.6961890837956
 20
751.4673913043486
 30
0.0
 11
400.6961890837956
 21
751.4673913043486
 31
0.0
  0
LINE
  5
397
330
A2
100
AcDbEntity
  8
0
  6
CENTER
 62
     9
100
AcDbLine
 10
410.6961890837956
 20
761.4673913043486
 30
0.0
 11
410.6961890837956
 21
741.4673913043486
 31
0.0
  0
ENDBLK
  5
A4
330
A2
100
AcDbEntity
  8
0
100
AcDbBlockEnd
  0
BLOCK
  5
A6
330
A5
100
AcDbEntity
  8
0
100
AcDbBlockBegin
  2
DA_IMAGEDIMGROUP_12
 70
     0
 71
     0
 10
0.0
 20
0.0
 30
0.0
  3
DA_IMAGEDIMGROUP_12
  1

  0
LINE
  5
398
330
A5
100
AcDbEntity
  8
LAYER0016
 62
     8
100
AcDbLine
 10
540.1961890837957
 20
558.9673913043486
 30
0.0
 11
540.1961890837957
 21
408.9673913043486
 31
0.0
  0
LINE
  5
399
330
A5
100
AcDbEntity
  8
LAYER0016
 62
     8
100
AcDbLine
 10
100.3974290837957
 20
622.4684263043486
 30
0.0
 11
100.3974290837957
 21
408.9673913043486
 31
0.0
  0
LINE
  5
39A
330
A5
100
AcDbEntity
  8
LAYER0016
 62
     8
100
AcDbLine
 10
100.3974290837957
 20
423.9673913043486
 30
0.0
 11
540.1961890837957
 21
423.9673913043486
 31
0.0
  0
INSERT
  5
39B
330
A5
100
AcDbEntity
  8
LAYER0016
 62
     8
100
AcDbBlockReference
  2
_OPEN30
 10
100.3974290837957
 20
423.9673913043486
 30
0.0
 41
29.99997611445993
 42
30.00008592479957
 50
180.0
  0
INSERT
  5
39C
330
A5
100
AcDbEntity
  8
LAYER0016
 62
     8
100
AcDbBlockReference
  2
_OPEN30
 10
540.1961890837957
 20
423.9673913043486
 30
0.0
 41
29.99997611445993
 42
30.00008592479957
 50
360.0
  0
TEXT
  5
39D
330
A5
100
AcDbEntity
  8
LAYER0016
 62
     7
100
AcDbText
 10
230.2968090837957
 20
438.9673913043486
 30
0.0
 40
45.0
  1
439.8
 41
0.9655172413793106
  7
FDASTYLE0
 72
     5
 11
410.2968090837957
 21
438.9673913043486
 31
0.0
100
AcDbText
  0
ENDBLK
  5
A7
330
A5
100
AcDbEntity
  8
0
100
AcDbBlockEnd
  0
BLOCK
  5
A9
330
A8
100
AcDbEntity
  8
0
100
AcDbBlockBegin
  2
DA_IMAGEDIMGROUP_13
 70
     0
 71
     0
 10
0.0
 20
0.0
 30
0.0
  3
DA_IMAGEDIMGROUP_13
  1

  0
LINE
  5
39E
330
A8
100
AcDbEntity
  8
LAYER0016
 62
     8
100
AcDbLine
 10
1528.196187176447
 20
-258.3306131929739
 30
0.0
 11
1708.196187176447
 21
-258.3306131929739
 31
0.0
  0
LINE
  5
39F
330
A8
100
AcDbEntity
  8
LAYER0016
 62
     8
100
AcDbLine
 10
1558.196187176447
 20
-41.33061319297397
 30
0.0
 11
1708.196187176447
 21
-41.33061319297397
 31
0.0
  0
LINE
  5
3A0
330
A8
100
AcDbEntity
  8
LAYER0016
 62
     8
100
AcDbLine
 10
1693.196187176447
 20
-258.3306131929739
 30
0.0
 11
1693.196187176447
 21
-41.33061319297397
 31
0.0
  0
INSERT
  5
3A1
330
A8
100
AcDbEntity
  8
LAYER0016
 62
     8
100
AcDbBlockReference
  2
_OPEN30
 10
1693.196187176447
 20
-258.3306131929739
 30
0.0
 41
29.99997611445993
 42
30.00008592479957
 50
270.0
  0
INSERT
  5
3A2
330
A8
100
AcDbEntity
  8
LAYER0016
 62
     8
100
AcDbBlockReference
  2
_OPEN30
 10
1693.196187176447
 20
-41.33061319297397
 30
0.0
 41
29.99997611445993
 42
30.00008592479957
 50
90.0
  0
TEXT
  5
3A3
330
A8
100
AcDbEntity
  8
LAYER0016
 62
     7
100
AcDbText
 10
1678.196187176447
 20
-167.8306131929739
 30
0.0
 40
45.0
  1
G
 50
90.0
 41
0.9333333333333334
  7
FDASTYLE0
 72
     5
 11
1678.196187176447
 21
-131.8306131929739
 31
0.0
100
AcDbText
  0
ENDBLK
  5
AA
330
A8
100
AcDbEntity
  8
0
100
AcDbBlockEnd
  0
BLOCK
  5
AC
330
AB
100
AcDbEntity
  8
0
100
AcDbBlockBegin
  2
GROUP_19
 70
     0
 71
     0
 10
0.0
 20
0.0
 30
0.0
  3
GROUP_19
  1

  0
LINE
  5
3A4
330
AB
100
AcDbEntity
  8
0
 62
     2
100
AcDbLine
 10
1543.196187176447
 20
-81.33061319297397
 30
0.0
 11
1123.196187176447
 21
-81.33061319297397
 31
0.0
  0
LINE
  5
3A5
330
AB
100
AcDbEntity
  8
0
 62
     2
100
AcDbLine
 10
1123.196187176447
 20
-233.3306131929739
 30
0.0
 11
1543.196187176447
 21
-233.3306131929739
 31
0.0
  0
ARC
  5
3A6
330
AB
100
AcDbEntity
  8
0
 62
     2
100
AcDbCircle
 10
1126.196187176447
 20
-64.33061319297394
 30
0.0
 40
3.0
100
AcDbArc
 50
89.99999999998236
 51
179.9999999999647
  0
CIRCLE
  5
3A7
330
AB
100
AcDbEntity
  8
0
 62
     2
100
AcDbCircle
 10
1173.196187176447
 20
-71.33061319297397
 30
0.0
 40
3.5
  0
CIRCLE
  5
3A8
330
AB
100
AcDbEntity
  8
0
 62
     2
100
AcDbCircle
 10
1333.196187176447
 20
-71.33061319297397
 30
0.0
 40
3.5
  0
CIRCLE
  5
3A9
330
AB
100
AcDbEntity
  8
0
 62
     2
100
AcDbCircle
 10
1493.196187176447
 20
-71.33061319297397
 30
0.0
 40
3.5
  0
ARC
  5
3AA
330
AB
100
AcDbEntity
  8
0
 62
     2
100
AcDbCircle
 10
1540.196187176447
 20
-64.33061319297394
 30
0.0
 40
3.0
100
AcDbArc
 50
0.0
 51
89.99999999998371
  0
ENDBLK
  5
AD
330
AB
100
AcDbEntity
  8
0
100
AcDbBlockEnd
  0
BLOCK
  5
AF
330
AE
100
AcDbEntity
  8
0
100
AcDbBlockBegin
  2
GROUP_20
 70
     0
 71
     0
 10
0.0
 20
0.0
 30
0.0
  3
GROUP_20
  1

  0
TEXT
  5
3AC
330
AE
100
AcDbEntity
  8
LAYER0064
 62
     7
100
AcDbText
 10
1220.696187176447
 20
115.2993758954225
 30
0.0
 40
56.25
  1
M矢視図
 41
0.7977640247554402
  7
FDASTYLE1
 72
     5
 11
1445.696187176447
 21
115.2993758954225
 31
0.0
100
AcDbText
  0
LINE
  5
3AD
330
AE
100
AcDbEntity
  8
LAYER0064
 62
     4
100
AcDbLine
 10
1220.696187176447
 20
95.61187589542249
 30
0.0
 11
1445.696187176447
 21
95.61187589542249
 31
0.0
  0
LINE
  5
3AE
330
AE
100
AcDbEntity
  8
LAYER0064
 62
     4
100
AcDbLine
 10
1220.696187176447
 20
104.0493758954225
 30
0.0
 11
1445.696187176447
 21
104.0493758954225
 31
0.0
  0
ENDBLK
  5
B0
330
AE
100
AcDbEntity
  8
0
100
AcDbBlockEnd
  0
BLOCK
  5
B2
330
B1
100
AcDbEntity
  8
0
100
AcDbBlockBegin
  2
GROUP_21
 70
     0
 71
     0
 10
0.0
 20
0.0
 30
0.0
  3
GROUP_21
  1

  0
LINE
  5
3AF
330
B1
100
AcDbEntity
  8
LAYER0064
 62
     3
100
AcDbLine
 10
-1977.49999999997
 20
1255.000000000001
 30
0.0
 11
-777.4999999999709
 21
1255.000000000001
 31
0.0
  0
LINE
  5
3B0
330
B1
100
AcDbEntity
  8
LAYER0064
 62
     3
100
AcDbLine
 10
-1977.49999999997
 20
1355.000000000001
 30
0.0
 11
-1977.49999999997
 21
565.0000000000005
 31
0.0
  0
LINE
  5
3B1
330
B1
100
AcDbEntity
  8
LAYER0064
 62
     3
100
AcDbLine
 10
-1977.49999999997
 20
1055.000000000001
 30
0.0
 11
-777.4999999999709
 21
1055.000000000001
 31
0.0
  0
LINE
  5
3B2
330
B1
100
AcDbEntity
  8
LAYER0064
 62
     3
100
AcDbLine
 10
-1977.49999999997
 20
635.0000000000005
 30
0.0
 11
-777.4999999999709
 21
635.0000000000005
 31
0.0
  0
LINE
  5
3B3
330
B1
100
AcDbEntity
  8
LAYER0064
 62
     3
100
AcDbLine
 10
-1977.49999999997
 20
565.0000000000005
 30
0.0
 11
-777.4999999999709
 21
565.0000000000005
 31
0.0
  0
LINE
  5
3B4
330
B1
100
AcDbEntity
  8
LAYER0064
 62
     3
100
AcDbLine
 10
-1977.49999999997
 20
985.0000000000005
 30
0.0
 11
-777.4999999999709
 21
985.0000000000005
 31
0.0
  0
LINE
  5
3B5
330
B1
100
AcDbEntity
  8
LAYER0064
 62
     3
100
AcDbLine
 10
-1977.49999999997
 20
705.0000000000005
 30
0.0
 11
-777.4999999999709
 21
705.0000000000005
 31
0.0
  0
LINE
  5
3B6
330
B1
100
AcDbEntity
  8
LAYER0064
 62
     3
100
AcDbLine
 10
-1977.49999999997
 20
915.0000000000005
 30
0.0
 11
-777.4999999999709
 21
915.0000000000005
 31
0.0
  0
LINE
  5
3B7
330
B1
100
AcDbEntity
  8
LAYER0064
 62
     3
100
AcDbLine
 10
-1977.49999999997
 20
845.0000000000005
 30
0.0
 11
-777.4999999999709
 21
845.0000000000005
 31
0.0
  0
LINE
  5
3B8
330
B1
100
AcDbEntity
  8
LAYER0064
 62
     3
100
AcDbLine
 10
-1977.49999999997
 20
775.0000000000005
 30
0.0
 11
-777.4999999999709
 21
775.0000000000005
 31
0.0
  0
LINE
  5
3B9
330
B1
100
AcDbEntity
  8
LAYER0064
 62
     3
100
AcDbLine
 10
-1877.499999999971
 20
1055.000000000001
 30
0.0
 11
-1877.499999999971
 21
565.0000000000005
 31
0.0
  0
LINE
  5
3BA
330
B1
100
AcDbEntity
  8
LAYER0064
 62
     3
100
AcDbLine
 10
-777.4999999999709
 20
1355.000000000001
 30
0.0
 11
-777.4999999999709
 21
565.0000000000005
 31
0.0
  0
LINE
  5
3BB
330
B1
100
AcDbEntity
  8
0
 62
     3
100
AcDbLine
 10
-777.4999999999709
 20
1355.000000000001
 30
0.0
 11
-1977.49999999997
 21
1355.000000000001
 31
0.0
  0
LINE
  5
3BC
330
B1
100
AcDbEntity
  8
0
 62
     3
100
AcDbLine
 10
-1977.49999999997
 20
1155.000000000001
 30
0.0
 11
-777.4999999999709
 21
1155.000000000001
 31
0.0
  0
LINE
  5
3BD
330
B1
100
AcDbEntity
  8
0
 62
     3
100
AcDbLine
 10
-1647.49999999997
 20
1055.000000000001
 30
0.0
 11
-1647.49999999997
 21
1255.000000000001
 31
0.0
  0
TEXT
  5
3BE
330
B1
100
AcDbEntity
  8
LAYER0064
 62
     7
100
AcDbText
 10
-1943.74999999997
 20
1178.750000000001
 30
0.0
 40
52.5
  1
御　客　先
 41
0.6898218478110758
  7
FDASTYLE1
 72
     5
 11
-1681.24999999997
 21
1178.750000000001
 31
0.0
100
AcDbText
  0
TEXT
  5
3BF
330
B1
100
AcDbEntity
  8
LAYER0064
 62
     7
100
AcDbText
 10
-1956.49999999997
 20
1082.500000000001
 30
0.0
 40
45.0
  1
END　USER
 41
0.9761221374045802
  7
FDASTYLE1
 72
     5
 11
-1668.49999999997
 21
1082.500000000001
 31
0.0
100
AcDbText
  0
TEXT
  5
3C0
330
B1
100
AcDbEntity
  8
LAYER0064
 62
     7
100
AcDbText
 10
-1953.74999999997
 20
993.7500000000005
 30
0.0
 40
52.5
  1
A
 41
1.423076923076923
  7
FDASTYLE1
 72
     5
 11
-1901.24999999997
 21
993.7500000000005
 31
0.0
100
AcDbText
  0
TEXT
  5
3C1
330
B1
100
AcDbEntity
  8
LAYER0064
 62
     7
100
AcDbText
 10
-1953.74999999997
 20
853.7500000000005
 30
0.0
 40
52.5
  1
C
 41
1.469117647058823
  7
FDASTYLE1
 72
     5
 11
-1901.24999999997
 21
853.7500000000005
 31
0.0
100
AcDbText
  0
TEXT
  5
3C2
330
B1
100
AcDbEntity
  8
LAYER0064
 62
     7
100
AcDbText
 10
-1953.74999999997
 20
783.7500000000005
 30
0.0
 40
52.5
  1
D
 41
1.469117647058823
  7
FDASTYLE1
 72
     5
 11
-1901.24999999997
 21
783.7500000000005
 31
0.0
100
AcDbText
  0
TEXT
  5
3C3
330
B1
100
AcDbEntity
  8
LAYER0064
 62
     7
100
AcDbText
 10
-1953.74999999997
 20
713.7500000000005
 30
0.0
 40
52.5
  1
E
 41
1.458394160583942
  7
FDASTYLE1
 72
     5
 11
-1901.24999999997
 21
713.7500000000005
 31
0.0
100
AcDbText
  0
TEXT
  5
3C4
330
B1
100
AcDbEntity
  8
LAYER0064
 62
     7
100
AcDbText
 10
-1852.499999999971
 20
713.7500000000005
 30
0.0
 40
52.5
  1
傾斜角
 41
0.7149332061068702
  7
FDASTYLE1
 72
     5
 11
-1694.999999999971
 21
713.7500000000005
 31
0.0
100
AcDbText
  0
TEXT
  5
3C5
330
B1
100
AcDbEntity
  8
LAYER0064
 62
     7
100
AcDbText
 10
-1852.499999999971
 20
783.7500000000005
 30
0.0
 40
52.5
  1
落口高さ（C-326）
 41
0.9649631190727083
  7
FDASTYLE1
 72
     5
 11
-1274.999999999971
 21
783.7500000000005
 31
0.0
100
AcDbText
  0
TEXT
  5
3C6
330
B1
100
AcDbEntity
  8
LAYER0064
 62
     7
100
AcDbText
 10
-1852.499999999971
 20
923.7500000000005
 30
0.0
 40
52.5
  1
機全長（水平）
 41
0.7605220228384991
  7
FDASTYLE1
 72
     5
 11
-1484.999999999971
 21
923.7500000000005
 31
0.0
100
AcDbText
  0
TEXT
  5
3C7
330
B1
100
AcDbEntity
  8
LAYER0064
 62
     7
100
AcDbText
 10
-1694.999999999971
 20
713.7500000000005
 30
0.0
 40
52.5
  1
（標準・30度・変更可）
 41
0.7969155088745598
  7
FDASTYLE1
 72
     5
 11
-1064.999999999971
 21
713.7500000000005
 31
0.0
100
AcDbText
  0
TEXT
  5
3C8
330
B1
100
AcDbEntity
  8
LAYER0064
 62
     7
100
AcDbText
 10
-907.4999999999709
 20
783.7500000000005
 30
0.0
 40
52.5
  1
mm
 41
1.372252747252747
  7
FDASTYLE1
 72
     5
 11
-802.4999999999709
 21
783.7500000000005
 31
0.0
100
AcDbText
  0
TEXT
  5
3C9
330
B1
100
AcDbEntity
  8
LAYER0064
 62
     7
100
AcDbText
 10
-907.4999999999709
 20
923.7500000000005
 30
0.0
 40
52.5
  1
mm
 41
1.372252747252747
  7
FDASTYLE1
 72
     5
 11
-802.4999999999709
 21
923.7500000000005
 31
0.0
100
AcDbText
  0
TEXT
  5
3CA
330
B1
100
AcDbEntity
  8
LAYER0064
 62
     7
100
AcDbText
 10
-1852.499999999971
 20
993.7500000000005
 30
0.0
 40
52.5
  1
機　幅（水平）
 41
0.7605220228384991
  7
FDASTYLE1
 72
     5
 11
-1484.999999999971
 21
993.7500000000005
 31
0.0
100
AcDbText
  0
TEXT
  5
3CB
330
B1
100
AcDbEntity
  8
LAYER0064
 62
     7
100
AcDbText
 10
-1852.499999999971
 20
853.7500000000005
 30
0.0
 40
52.5
  1
機全高（垂直）
 41
0.7605220228384991
  7
FDASTYLE1
 72
     5
 11
-1484.999999999971
 21
853.7500000000005
 31
0.0
100
AcDbText
  0
TEXT
  5
3CC
330
B1
100
AcDbEntity
  8
LAYER0064
 62
     7
100
AcDbText
 10
-907.4999999999709
 20
853.7500000000005
 30
0.0
 40
52.5
  1
mm
 41
1.372252747252747
  7
FDASTYLE1
 72
     5
 11
-802.4999999999709
 21
853.7500000000005
 31
0.0
100
AcDbText
  0
TEXT
  5
3CD
330
B1
100
AcDbEntity
  8
LAYER0064
 62
     7
100
AcDbText
 10
-1744.99999999997
 20
1278.750000000001
 30
0.0
 40
52.5
  1
スクリュー・コンベヤー・仕様
 41
0.684648521636969
  7
FDASTYLE1
 72
     5
 11
-1009.99999999997
 21
1278.750000000001
 31
0.0
100
AcDbText
  0
TEXT
  5
3CE
330
B1
100
AcDbEntity
  8
LAYER0064
 62
     7
100
AcDbText
 10
-907.4999999999709
 20
993.7500000000005
 30
0.0
 40
52.5
  1
mm
 41
1.372252747252747
  7
FDASTYLE1
 72
     5
 11
-802.4999999999709
 21
993.7500000000005
 31
0.0
100
AcDbText
  0
TEXT
  5
3CF
330
B1
100
AcDbEntity
  8
LAYER0064
 62
     7
100
AcDbText
 10
-854.9999999999709
 20
713.7500000000005
 30
0.0
 40
52.5
  1
度
 41
0.7171572146446518
  7
FDASTYLE1
 72
     5
 11
-802.4999999999709
 21
713.7500000000005
 31
0.0
100
AcDbText
  0
TEXT
  5
3D0
330
B1
100
AcDbEntity
  8
LAYER0064
 62
     7
100
AcDbText
 10
-1953.74999999997
 20
643.7500000000005
 30
0.0
 40
52.5
  1
F
 41
1.423076923076923
  7
FDASTYLE1
 72
     5
 11
-1901.24999999997
 21
643.7500000000005
 31
0.0
100
AcDbText
  0
TEXT
  5
3D1
330
B1
100
AcDbEntity
  8
LAYER0064
 62
     7
100
AcDbText
 10
-1953.74999999997
 20
573.7500000000005
 30
0.0
 40
52.5
  1
G
 41
1.423076923076923
  7
FDASTYLE1
 72
     5
 11
-1901.24999999997
 21
573.7500000000005
 31
0.0
100
AcDbText
  0
TEXT
  5
3D2
330
B1
100
AcDbEntity
  8
LAYER0064
 62
     7
100
AcDbText
 10
-854.9999999999709
 20
1178.750000000001
 30
0.0
 40
52.5
  1
殿
 41
0.697138869504536
  7
FDASTYLE1
 72
     5
 11
-802.4999999999709
 21
1178.750000000001
 31
0.0
100
AcDbText
  0
TEXT
  5
3D3
330
B1
100
AcDbEntity
  8
LAYER0064
 62
     7
100
AcDbText
 10
-854.9999999999709
 20
1078.750000000001
 30
0.0
 40
52.5
  1
殿
 41
0.697138869504536
  7
FDASTYLE1
 72
     5
 11
-802.4999999999709
 21
1078.750000000001
 31
0.0
100
AcDbText
  0
TEXT
  5
3D4
330
B1
100
AcDbEntity
  8
LAYER0064
 62
     7
100
AcDbText
 10
-1953.74999999997
 20
923.7500000000005
 30
0.0
 40
52.5
  1
B
 41
1.469117647058823
  7
FDASTYLE1
 72
     5
 11
-1901.24999999997
 21
923.7500000000005
 31
0.0
100
AcDbText
  0
TEXT
  5
3D5
330
B1
100
AcDbEntity
  8
LAYER0064
 62
     7
100
AcDbText
 10
-1852.499999999971
 20
573.7500000000005
 30
0.0
 40
52.5
  1
切粉・受け部・高さ
 41
0.6975174553917766
  7
FDASTYLE1
 72
     5
 11
-1379.999999999971
 21
573.7500000000005
 31
0.0
100
AcDbText
  0
TEXT
  5
3D6
330
B1
100
AcDbEntity
  8
LAYER0064
 62
     7
100
AcDbText
 10
-1852.499999999971
 20
643.7500000000005
 30
0.0
 40
52.5
  1
切粉・受け部・長さ
 41
0.6975174553917766
  7
FDASTYLE1
 72
     5
 11
-1379.999999999971
 21
643.7500000000005
 31
0.0
100
AcDbText
  0
TEXT
  5
3D7
330
B1
100
AcDbEntity
  8
LAYER0064
 62
     7
100
AcDbText
 10
-907.4999999999709
 20
643.7500000000005
 30
0.0
 40
52.5
  1
mm
 41
1.372252747252747
  7
FDASTYLE1
 72
     5
 11
-802.4999999999709
 21
643.7500000000005
 31
0.0
100
AcDbText
  0
TEXT
  5
3D8
330
B1
100
AcDbEntity
  8
LAYER0064
 62
     7
100
AcDbText
 10
-907.4999999999709
 20
573.7500000000005
 30
0.0
 40
52.5
  1
mm
 41
1.372252747252747
  7
FDASTYLE1
 72
     5
 11
-802.4999999999709
 21
573.7500000000005
 31
0.0
100
AcDbText
  0
ENDBLK
  5
B3
330
B1
100
AcDbEntity
  8
0
100
AcDbBlockEnd
  0
BLOCK
  5
276
330
275
100
AcDbEntity
  8
0
100
AcDbBlockBegin
  2
_OPEN30
 70
     0
 71
     0
 10
0.0
 20
0.0
 30
0.0
  3
_OPEN30
  1

  0
LINE
  5
278
330
275
100
AcDbEntity
  8
0
  6
BYBLOCK
 62
     0
100
AcDbLine
 10
-1.0
 20
0.267949
 30
0.0
 11
0.0
 21
0.0
 31
0.0
  0
LINE
  5
279
330
275
100
AcDbEntity
  8
0
  6
BYBLOCK
 62
     0
100
AcDbLine
 10
0.0
 20
0.0
 30
0.0
 11
-1.0
 21
-0.267949
 31
0.0
  0
LINE
  5
27A
330
275
100
AcDbEntity
  8
0
  6
BYBLOCK
 62
     0
100
AcDbLine
 10
0.0
 20
0.0
 30
0.0
 11
-1.0
 21
0.0
 31
0.0
  0
ENDBLK
  5
277
330
275
100
AcDbEntity
  8
0
100
AcDbBlockEnd
  0
ENDSEC
  0
SECTION
  2
ENTITIES
  0
INSERT
  5
110
330
1F
100
AcDbEntity
  8
0
  6
CONTINUOUS
100
AcDbBlockReference
  2
GROUP_3
 10
0.0
 20
0.0
 30
0.0
  0
INSERT
  5
111
330
1F
100
AcDbEntity
  8
0
  6
CONTINUOUS
100
AcDbBlockReference
  2
GROUP_4
 10
0.0
 20
0.0
 30
0.0
  0
INSERT
  5
112
330
1F
100
AcDbEntity
  8
0
  6
CONTINUOUS
100
AcDbBlockReference
  2
GROUP_5
 10
0.0
 20
0.0
 30
0.0
  0
INSERT
  5
1D2
330
1F
100
AcDbEntity
  8
0
  6
CONTINUOUS
100
AcDbBlockReference
  2
GROUP_7
 10
0.0
 20
0.0
 30
0.0
  0
INSERT
  5
1D3
330
1F
100
AcDbEntity
  8
0
  6
CONTINUOUS
100
AcDbBlockReference
  2
GROUP_9
 10
0.0
 20
0.0
 30
0.0
  0
INSERT
  5
1D4
330
1F
100
AcDbEntity
  8
0
  6
CONTINUOUS
100
AcDbBlockReference
  2
GROUP_8
 10
0.0
 20
0.0
 30
0.0
  0
INSERT
  5
26A
330
1F
100
AcDbEntity
  8
0
  6
CONTINUOUS
100
AcDbBlockReference
  2
GROUP_11
 10
0.0
 20
0.0
 30
0.0
  0
INSERT
  5
376
330
1F
100
AcDbEntity
  8
0
  6
CONTINUOUS
100
AcDbBlockReference
  2
GROUP_13
 10
0.0
 20
0.0
 30
0.0
  0
INSERT
  5
377
330
1F
100
AcDbEntity
  8
0
  6
CONTINUOUS
100
AcDbBlockReference
  2
GROUP_14
 10
0.0
 20
0.0
 30
0.0
  0
INSERT
  5
378
330
1F
100
AcDbEntity
  8
0
  6
CONTINUOUS
100
AcDbBlockReference
  2
GROUP_15
 10
0.0
 20
0.0
 30
0.0
  0
INSERT
  5
379
330
1F
100
AcDbEntity
  8
0
  6
CONTINUOUS
100
AcDbBlockReference
  2
GROUP_16
 10
0.0
 20
0.0
 30
0.0
  0
INSERT
  5
37A
330
1F
100
AcDbEntity
  8
0
  6
CONTINUOUS
100
AcDbBlockReference
  2
GROUP_17
 10
0.0
 20
0.0
 30
0.0
  0
INSERT
  5
37B
330
1F
100
AcDbEntity
  8
0
  6
CONTINUOUS
100
AcDbBlockReference
  2
GROUP_18
 10
0.0
 20
0.0
 30
0.0
  0
INSERT
  5
3D9
330
1F
100
AcDbEntity
  8
0
  6
CONTINUOUS
100
AcDbBlockReference
  2
GROUP_1
 10
0.0
 20
0.0
 30
0.0
  0
INSERT
  5
3DA
330
1F
100
AcDbEntity
  8
0
  6
CONTINUOUS
100
AcDbBlockReference
  2
GROUP_2
 10
0.0
 20
0.0
 30
0.0
  0
INSERT
  5
3DB
330
1F
100
AcDbEntity
  8
0
  6
CONTINUOUS
100
AcDbBlockReference
  2
GROUP_6
 10
0.0
 20
0.0
 30
0.0
  0
INSERT
  5
3DC
330
1F
100
AcDbEntity
  8
0
  6
CONTINUOUS
100
AcDbBlockReference
  2
GROUP_10
 10
0.0
 20
0.0
 30
0.0
  0
INSERT
  5
3DD
330
1F
100
AcDbEntity
  8
0
  6
CONTINUOUS
100
AcDbBlockReference
  2
GROUP_12
 10
0.0
 20
0.0
 30
0.0
  0
INSERT
  5
3DE
330
1F
100
AcDbEntity
  8
0
  6
CONTINUOUS
100
AcDbBlockReference
  2
GROUP_19
 10
0.0
 20
0.0
 30
0.0
  0
INSERT
  5
3DF
330
1F
100
AcDbEntity
  8
0
  6
CONTINUOUS
100
AcDbBlockReference
  2
GROUP_20
 10
0.0
 20
0.0
 30
0.0
  0
INSERT
  5
3E0
330
1F
100
AcDbEntity
  8
0
  6
CONTINUOUS
100
AcDbBlockReference
  2
GROUP_21
 10
0.0
 20
0.0
 30
0.0
  0
INSERT
  5
3E1
330
1F
100
AcDbEntity
  8
LAYER0016
  6
CONTINUOUS
100
AcDbBlockReference
  2
DA_IMAGEDIMGROUP_1
 10
0.0
 20
0.0
 30
0.0
  0
INSERT
  5
3E2
330
1F
100
AcDbEntity
  8
LAYER0016
  6
CONTINUOUS
100
AcDbBlockReference
  2
DA_IMAGEDIMGROUP_2
 10
0.0
 20
0.0
 30
0.0
  0
INSERT
  5
3E3
330
1F
100
AcDbEntity
  8
LAYER0016
  6
CONTINUOUS
100
AcDbBlockReference
  2
DA_IMAGEDIMGROUP_3
 10
0.0
 20
0.0
 30
0.0
  0
INSERT
  5
3E4
330
1F
100
AcDbEntity
  8
LAYER0016
  6
CONTINUOUS
100
AcDbBlockReference
  2
DA_IMAGEDIMGROUP_4
 10
0.0
 20
0.0
 30
0.0
  0
INSERT
  5
3E5
330
1F
100
AcDbEntity
  8
LAYER0016
  6
CONTINUOUS
100
AcDbBlockReference
  2
DA_IMAGEDIMGROUP_5
 10
0.0
 20
0.0
 30
0.0
  0
INSERT
  5
3E6
330
1F
100
AcDbEntity
  8
LAYER0016
  6
CONTINUOUS
100
AcDbBlockReference
  2
DA_IMAGEDIMGROUP_6
 10
0.0
 20
0.0
 30
0.0
  0
INSERT
  5
3E7
330
1F
100
AcDbEntity
  8
LAYER0016
  6
CONTINUOUS
100
AcDbBlockReference
  2
DA_IMAGEDIMGROUP_7
 10
0.0
 20
0.0
 30
0.0
  0
INSERT
  5
3E8
330
1F
100
AcDbEntity
  8
LAYER0016
  6
CONTINUOUS
100
AcDbBlockReference
  2
DA_IMAGEDIMGROUP_8
 10
0.0
 20
0.0
 30
0.0
  0
INSERT
  5
3E9
330
1F
100
AcDbEntity
  8
LAYER0016
  6
CONTINUOUS
100
AcDbBlockReference
  2
DA_IMAGEDIMGROUP_9
 10
0.0
 20
0.0
 30
0.0
  0
INSERT
  5
3EA
330
1F
100
AcDbEntity
  8
LAYER0016
  6
CONTINUOUS
100
AcDbBlockReference
  2
DA_IMAGEDIMGROUP_10
 10
0.0
 20
0.0
 30
0.0
  0
INSERT
  5
3EB
330
1F
100
AcDbEntity
  8
LAYER0016
  6
CONTINUOUS
100
AcDbBlockReference
  2
DA_IMAGEDIMGROUP_11
 10
0.0
 20
0.0
 30
0.0
  0
INSERT
  5
3EC
330
1F
100
AcDbEntity
  8
LAYER0016
  6
CONTINUOUS
100
AcDbBlockReference
  2
DA_IMAGEDIMGROUP_12
 10
0.0
 20
0.0
 30
0.0
  0
INSERT
  5
3ED
330
1F
100
AcDbEntity
  8
LAYER0016
  6
CONTINUOUS
100
AcDbBlockReference
  2
DA_IMAGEDIMGROUP_13
 10
0.0
 20
0.0
 30
0.0
  0
TEXT
  5
3EE
330
1F
100
AcDbEntity
  8
LAYER0064
 62
     7
100
AcDbText
 10
1890.071187176447
 20
-871.6250026553507
 30
0.0
 40
56.25
  1
M
 41
1.399159663865546
  7
FDASTYLE1
 72
     5
 11
1946.321187176447
 21
-871.6250026553507
 31
0.0
100
AcDbText
  0
LINE
  5
3EF
330
1F
100
AcDbEntity
  8
0
 62
     4
100
AcDbLine
 10
1743.196187176447
 20
-843.5000026553507
 30
0.0
 11
1868.196187176447
 21
-843.5000026553507
 31
0.0
  0
INSERT
  5
3F0
330
1F
100
AcDbEntity
  8
0
 62
     4
100
AcDbBlockReference
  2
_OPEN30
 10
1743.196187176447
 20
-843.5000026553507
 30
0.0
 41
29.99997611445993
 42
30.00008592479957
 50
180.0
  0
CIRCLE
  5
3F1
330
1F
100
AcDbEntity
  8
0
 62
     4
100
AcDbCircle
 10
1918.196187176447
 20
-843.5000026553507
 30
0.0
 40
50.0
  0
VIEWPORT
  5
32
330
1B
100
AcDbEntity
 67
     1
  8
0
100
AcDbViewport
 10
0.0
 20
-0.0000000000004547
 30
0.0
 40
12465.0
 41
8730.0
 68
     1
 69
     1
1001
ACAD
1000
MVIEW
1002
{
1070
    16
1010
0.0
1020
0.0
1030
0.0
1010
0.0
1020
0.0
1030
1.0
1040
0.0
1040
8730.0
1040
0.0
1040
-0.0000000000004547
1040
50.0
1040
0.0
1040
0.0
1070
     0
1070
   100
1070
     0
1070
     1
1070
     0
1070
     0
1070
     0
1070
     0
1040
0.0
1040
0.0
1040
0.0
1040
1.0
1040
1.0
1040
0.0
1040
0.0
1070
     0
1002
{
1002
}
1002
}
  0
ENDSEC
  0
SECTION
  2
OBJECTS
  0
DICTIONARY
  5
C
330
0
100
AcDbDictionary
  3
ACAD_GROUP
350
D
  3
ACAD_LAYOUT
350
1A
  3
ACAD_MLINESTYLE
350
17
  3
ACAD_PLOTSETTINGS
350
19
  3
ACAD_TABLESTYLE
350
2A
  3
ACDBHEADERROUNDTRIPXREC
350
3F2
  3
ACDBVARIABLEDICTIONARY
350
2C
  0
DICTIONARY
  5
412
330
29
100
AcDbDictionary
280
     1
  3
ACAD_XREC_ROUNDTRIP
360
413
  0
DICTIONARY
  5
D
102
{ACAD_REACTORS
330
C
102
}
330
C
100
AcDbDictionary
  0
DICTIONARY
  5
1A
102
{ACAD_REACTORS
330
C
102
}
330
C
100
AcDbDictionary
  0
DICTIONARY
  5
17
102
{ACAD_REACTORS
330
C
102
}
330
C
100
AcDbDictionary
  3
STANDARD
350
18
  0
DICTIONARY
  5
19
102
{ACAD_REACTORS
330
C
102
}
330
C
100
AcDbDictionary
  0
DICTIONARY
  5
2A
102
{ACAD_REACTORS
330
C
102
}
330
C
100
AcDbDictionary
  3
STANDARD
350
2B
  0
DICTIONARY
  5
3F2
102
{ACAD_REACTORS
330
C
102
}
330
C
100
AcDbDictionary
  3
CEPSNTYPE
350
3FB
  3
DIMSTYLEDATA
350
411
  3
FINGERPRINTGUID
350
3FC
  3
HYPERLINKBASE
350
3F5
  3
INSUNITS
350
3FA
  3
LAYOUTDICT
350
3F7
  3
LWETCUNION
350
3F9
  3
PLOTSETDICT
350
3F8
  3
PSVPSCALE
350
3FE
  3
PUCSBASE
350
401
  3
PUCSORGBACK
350
407
  3
PUCSORGBOTTOM
350
403
  3
PUCSORGFRONT
350
406
  3
PUCSORGLEFT
350
404
  3
PUCSORGRIGHT
350
405
  3
PUCSORGTOP
350
402
  3
PUCSORTHOREF
350
3FF
  3
PUCSORTHOVIEW
350
400
  3
STYLESHEET
350
3F6
  3
TSTACKALIGN
350
3F3
  3
TSTACKSIZE
350
3F4
  3
UCSBASE
350
40A
  3
UCSORGBACK
350
410
  3
UCSORGBOTTOM
350
40C
  3
UCSORGFRONT
350
40F
  3
UCSORGLEFT
350
40D
  3
UCSORGRIGHT
350
40E
  3
UCSORGTOP
350
40B
  3
UCSORTHOREF
350
408
  3
UCSORTHOVIEW
350
409
  3
VERSIONGUID
350
3FD
  0
DICTIONARY
  5
2C
102
{ACAD_REACTORS
330
C
102
}
330
C
100
AcDbDictionary
  3
CTABLESTYLE
350
2D
  0
XRECORD
  5
413
102
{ACAD_REACTORS
330
412
102
}
330
412
100
AcDbXrecord
102
UCS
 74
     0
 71
     1
 10
0.0
 20
0.0
 30
0.0
 10
1.0
 20
0.0
 30
0.0
 10
0.0
 20
1.0
 30
0.0
146
0.0
 79
     0
102
VIEW
281
     0
  0
MLINESTYLE
  5
18
102
{ACAD_REACTORS
330
17
102
}
330
17
100
AcDbMlineStyle
  2
Standard
 70
     0
  3

 62
   256
 51
90.0
 52
90.0
 71
     2
 49
0.5
 62
   256
  6
BYLAYER
 49
-0.5
 62
   256
  6
BYLAYER
  0
TABLESTYLE
  5
2B
102
{ACAD_REACTORS
330
2A
102
}
330
2A
100
AcDbTableStyle
  3
Standard
 70
     0
 71
     0
 40
0.06
 41
0.06
280
     0
281
     0
  7
STANDARD
140
0.18
170
     2
 62
     0
 63
     7
283
     0
274
    -2
284
     1
 64
     0
275
    -2
285
     1
 65
     0
276
    -2
286
     1
 66
     0
277
    -2
287
     1
 67
     0
278
    -2
288
     1
 68
     0
279
    -2
289
     1
 69
     0
  7
STANDARD
140
0.25
170
     5
 62
     0
 63
     7
283
     0
274
    -2
284
     1
 64
     0
275
    -2
285
     1
 65
     0
276
    -2
286
     1
 66
     0
277
    -2
287
     1
 67
     0
278
    -2
288
     1
 68
     0
279
    -2
289
     1
 69
     0
  7
STANDARD
140
0.18
170
     5
 62
     0
 63
     7
283
     0
274
    -2
284
     1
 64
     0
275
    -2
285
     1
 65
     0
276
    -2
286
     1
 66
     0
277
    -2
287
     1
 67
     0
278
    -2
288
     1
 68
     0
279
    -2
289
     1
 69
     0
  0
XRECORD
  5
3FB
102
{ACAD_REACTORS
330
3F2
102
}
330
3F2
100
AcDbXrecord
 90
        0
  0
XRECORD
  5
411
102
{ACAD_REACTORS
330
3F2
102
}
330
3F2
100
AcDbXrecord
1000
DSTYLE
1002
{
1070
   171
 70
     2
1070
   143
 40
25.4
1070
   274
 70
     2
1070
    41
 40
0.18
1070
   141
 40
0.09
1070
   271
 70
     4
1070
    43
 40
0.38
1070
    44
 40
0.18
1070
   278
 70
    46
1070
    42
 40
0.0625
1070
   147
 40
0.09
1070
    77
 70
     3
1070
   272
 70
     4
1070
    73
 70
     1
1070
   172
 70
     0
1070
    74
 70
     1
1070
   283
 70
     1
1070
   340
340
11
1070
   140
 40
0.18
1070
   284
 70
     0
1070
    78
 70
     0
1002
}
  0
XRECORD
  5
3FC
102
{ACAD_REACTORS
330
3F2
102
}
330
3F2
100
AcDbXrecord
  1
{FAEB1C30-E019-11D5-929B-00C0DF256EC4}
  0
XRECORD
  5
3F5
102
{ACAD_REACTORS
330
3F2
102
}
330
3F2
100
AcDbXrecord
  1

  0
XRECORD
  5
3FA
102
{ACAD_REACTORS
330
3F2
102
}
330
3F2
100
AcDbXrecord
 90
        4
  0
XRECORD
  5
3F7
102
{ACAD_REACTORS
330
3F2
102
}
330
3F2
100
AcDbXrecord
340
1A
  0
XRECORD
  5
3F9
102
{ACAD_REACTORS
330
3F2
102
}
330
3F2
100
AcDbXrecord
 90
    10240
  0
XRECORD
  5
3F8
102
{ACAD_REACTORS
330
3F2
102
}
330
3F2
100
AcDbXrecord
340
19
  0
XRECORD
  5
3FE
102
{ACAD_REACTORS
330
3F2
102
}
330
3F2
100
AcDbXrecord
 40
0.0
  0
XRECORD
  5
401
102
{ACAD_REACTORS
330
3F2
102
}
330
3F2
100
AcDbXrecord
340
0
  0
XRECORD
  5
407
102
{ACAD_REACTORS
330
3F2
102
}
330
3F2
100
AcDbXrecord
 10
0.0
 20
0.0
 30
0.0
  0
XRECORD
  5
403
102
{ACAD_REACTORS
330
3F2
102
}
330
3F2
100
AcDbXrecord
 10
0.0
 20
0.0
 30
0.0
  0
XRECORD
  5
406
102
{ACAD_REACTORS
330
3F2
102
}
330
3F2
100
AcDbXrecord
 10
0.0
 20
0.0
 30
0.0
  0
XRECORD
  5
404
102
{ACAD_REACTORS
330
3F2
102
}
330
3F2
100
AcDbXrecord
 10
0.0
 20
0.0
 30
0.0
  0
XRECORD
  5
405
102
{ACAD_REACTORS
330
3F2
102
}
330
3F2
100
AcDbXrecord
 10
0.0
 20
0.0
 30
0.0
  0
XRECORD
  5
402
102
{ACAD_REACTORS
330
3F2
102
}
330
3F2
100
AcDbXrecord
 10
0.0
 20
0.0
 30
0.0
  0
XRECORD
  5
3FF
102
{ACAD_REACTORS
330
3F2
102
}
330
3F2
100
AcDbXrecord
340
0
  0
XRECORD
  5
400
102
{ACAD_REACTORS
330
3F2
102
}
330
3F2
100
AcDbXrecord
 70
     0
  0
XRECORD
  5
3F6
102
{ACAD_REACTORS
330
3F2
102
}
330
3F2
100
AcDbXrecord
  1

  0
XRECORD
  5
3F3
102
{ACAD_REACTORS
330
3F2
102
}
330
3F2
100
AcDbXrecord
 90
        1
  0
XRECORD
  5
3F4
102
{ACAD_REACTORS
330
3F2
102
}
330
3F2
100
AcDbXrecord
 90
       70
  0
XRECORD
  5
40A
102
{ACAD_REACTORS
330
3F2
102
}
330
3F2
100
AcDbXrecord
340
0
  0
XRECORD
  5
410
102
{ACAD_REACTORS
330
3F2
102
}
330
3F2
100
AcDbXrecord
 10
0.0
 20
0.0
 30
0.0
  0
XRECORD
  5
40C
102
{ACAD_REACTORS
330
3F2
102
}
330
3F2
100
AcDbXrecord
 10
0.0
 20
0.0
 30
0.0
  0
XRECORD
  5
40F
102
{ACAD_REACTORS
330
3F2
102
}
330
3F2
100
AcDbXrecord
 10
0.0
 20
0.0
 30
0.0
  0
XRECORD
  5
40D
102
{ACAD_REACTORS
330
3F2
102
}
330
3F2
100
AcDbXrecord
 10
0.0
 20
0.0
 30
0.0
  0
XRECORD
  5
40E
102
{ACAD_REACTORS
330
3F2
102
}
330
3F2
100
AcDbXrecord
 10
0.0
 20
0.0
 30
0.0
  0
XRECORD
  5
40B
102
{ACAD_REACTORS
330
3F2
102
}
330
3F2
100
AcDbXrecord
 10
0.0
 20
0.0
 30
0.0
  0
XRECORD
  5
408
102
{ACAD_REACTORS
330
3F2
102
}
330
3F2
100
AcDbXrecord
340
0
  0
XRECORD
  5
409
102
{ACAD_REACTORS
330
3F2
102
}
330
3F2
100
AcDbXrecord
 70
     0
  0
XRECORD
  5
3FD
102
{ACAD_REACTORS
330
3F2
102
}
330
3F2
100
AcDbXrecord
  1
{FAEB1C32-E019-11D5-929B-00C0DF256EC4}
  0
DICTIONARYVAR
  5
2D
102
{ACAD_REACTORS
330
2C
102
}
330
2C
100
DictionaryVariables
280
     0
  1
Standard
  0
ENDSEC
  0
EOF
