  0
SECTION
  2
HEADER
  9
$ACADVER
  1
AC1014
  9
$ACADMAINTVER
 70
     9
  9
$DWGCODEPAGE
  3
ANSI_932
  9
$INSBASE
 10
0.0
 20
0.0
 30
0.0
  9
$EXTMIN
 10
-7132.5
 20
-4365.000000000001
 30
0.0
  9
$EXTMAX
 10
8032.5
 20
4365.0
 30
0.0
  9
$LIMMIN
 10
-2227.5
 20
-1575.0
  9
$LIMMAX
 10
2227.5
 20
1575.0
  9
$ORTHOMODE
 70
     0
  9
$REGENMODE
 70
     0
  9
$FILLMODE
 70
     1
  9
$QTEXTMODE
 70
     0
  9
$MIRRTEXT
 70
     1
  9
$DRAGMODE
 70
     2
  9
$LTSCALE
 40
15.0
  9
$OSMODE
 70
    37
  9
$ATTMODE
 70
     1
  9
$TEXTSIZE
 40
0.2
  9
$TRACEWID
 40
0.05
  9
$TEXTSTYLE
  7
STANDARD
  9
$CLAYER
  8
0
  9
$CELTYPE
  6
BYLAYER
  9
$CECOLOR
 62
   256
  9
$CELTSCALE
 40
1.0
  9
$DELOBJ
 70
     1
  9
$DISPSILH
 70
     0
  9
$DIMSCALE
 40
1.0
  9
$DIMASZ
 40
0.18
  9
$DIMEXO
 40
0.0625
  9
$DIMDLI
 40
0.38
  9
$DIMRND
 40
0.0
  9
$DIMDLE
 40
0.0
  9
$DIMEXE
 40
0.18
  9
$DIMTP
 40
0.0
  9
$DIMTM
 40
0.0
  9
$DIMTXT
 40
0.18
  9
$DIMCEN
 40
0.09
  9
$DIMTSZ
 40
0.0
  9
$DIMTOL
 70
     0
  9
$DIMLIM
 70
     0
  9
$DIMTIH
 70
     1
  9
$DIMTOH
 70
     1
  9
$DIMSE1
 70
     0
  9
$DIMSE2
 70
     0
  9
$DIMTAD
 70
     3
  9
$DIMZIN
 70
     0
  9
$DIMBLK
  1

  9
$DIMASO
 70
     1
  9
$DIMSHO
 70
     1
  9
$DIMPOST
  1

  9
$DIMAPOST
  1

  9
$DIMALT
 70
     0
  9
$DIMALTD
 70
     2
  9
$DIMALTF
 40
25.4
  9
$DIMLFAC
 40
1.0
  9
$DIMTOFL
 70
     0
  9
$DIMTVP
 40
0.0
  9
$DIMTIX
 70
     0
  9
$DIMSOXD
 70
     0
  9
$DIMSAH
 70
     0
  9
$DIMBLK1
  1

  9
$DIMBLK2
  1

  9
$DIMSTYLE
  2
STANDARD
  9
$DIMCLRD
 70
     0
  9
$DIMCLRE
 70
     0
  9
$DIMCLRT
 70
     0
  9
$DIMTFAC
 40
1.0
  9
$DIMGAP
 40
0.09
  9
$DIMJUST
 70
     0
  9
$DIMSD1
 70
     0
  9
$DIMSD2
 70
     0
  9
$DIMTOLJ
 70
     1
  9
$DIMTZIN
 70
     0
  9
$DIMALTZ
 70
     0
  9
$DIMALTTZ
 70
     0
  9
$DIMFIT
 70
     3
  9
$DIMUPT
 70
     0
  9
$DIMUNIT
 70
     2
  9
$DIMDEC
 70
     4
  9
$DIMTDEC
 70
     4
  9
$DIMALTU
 70
     2
  9
$DIMALTTD
 70
     2
  9
$DIMTXSTY
  7
STANDARD
  9
$DIMAUNIT
 70
     0
  9
$LUNITS
 70
     2
  9
$LUPREC
 70
     4
  9
$SKETCHINC
 40
0.1
  9
$FILLETRAD
 40
0.5
  9
$AUNITS
 70
     0
  9
$AUPREC
 70
     0
  9
$MENU
  1
.
  9
$ELEVATION
 40
0.0
  9
$PELEVATION
 40
0.0
  9
$THICKNESS
 40
0.0
  9
$LIMCHECK
 70
     1
  9
$CHAMFERA
 40
0.5
  9
$CHAMFERB
 40
0.5
  9
$CHAMFERC
 40
1.0
  9
$CHAMFERD
 40
0.0
  9
$SKPOLY
 70
     0
  9
$TDCREATE
 40
0.0
  9
$TDUPDATE
 40
2454270.683439317
  9
$TDINDWG
 40
0.0000000116
  9
$TDUSRTIMER
 40
0.0000000116
  9
$USRTIMER
 70
     1
  9
$ANGBASE
 50
0.0
  9
$ANGDIR
 70
     0
  9
$PDMODE
 70
     0
  9
$PDSIZE
 40
1.0
  9
$PLINEWID
 40
0.0
  9
$COORDS
 70
     1
  9
$SPLFRAME
 70
     0
  9
$SPLINETYPE
 70
     6
  9
$SPLINESEGS
 70
     8
  9
$ATTDIA
 70
     0
  9
$ATTREQ
 70
     1
  9
$HANDLING
 70
     1
  9
$HANDSEED
  5
49A
  9
$SURFTAB1
 70
     6
  9
$SURFTAB2
 70
     6
  9
$SURFTYPE
 70
     6
  9
$SURFU
 70
     6
  9
$SURFV
 70
     6
  9
$UCSNAME
  2

  9
$UCSORG
 10
0.0
 20
0.0
 30
0.0
  9
$UCSXDIR
 10
1.0
 20
0.0
 30
0.0
  9
$UCSYDIR
 10
0.0
 20
1.0
 30
0.0
  9
$PUCSNAME
  2

  9
$PUCSORG
 10
0.0
 20
0.0
 30
0.0
  9
$PUCSXDIR
 10
1.0
 20
0.0
 30
0.0
  9
$PUCSYDIR
 10
0.0
 20
1.0
 30
0.0
  9
$USERI1
 70
     0
  9
$USERI2
 70
     0
  9
$USERI3
 70
     0
  9
$USERI4
 70
     0
  9
$USERI5
 70
     0
  9
$USERR1
 40
0.0
  9
$USERR2
 40
0.0
  9
$USERR3
 40
0.0
  9
$USERR4
 40
0.0
  9
$USERR5
 40
0.0
  9
$WORLDVIEW
 70
     1
  9
$SHADEDGE
 70
     3
  9
$SHADEDIF
 70
    70
  9
$TILEMODE
 70
     1
  9
$MAXACTVP
 70
    64
  9
$PINSBASE
 10
0.0
 20
0.0
 30
0.0
  9
$PLIMCHECK
 70
     1
  9
$PEXTMIN
 10
1.000000000000000E+20
 20
1.000000000000000E+20
 30
1.000000000000000E+20
  9
$PEXTMAX
 10
-1.000000000000000E+20
 20
-1.000000000000000E+20
 30
-1.000000000000000E+20
  9
$PLIMMIN
 10
0.0
 20
0.0
  9
$PLIMMAX
 10
12.0
 20
9.0
  9
$UNITMODE
 70
     0
  9
$VISRETAIN
 70
     0
  9
$PLINEGEN
 70
     1
  9
$PSLTSCALE
 70
     0
  9
$TREEDEPTH
 70
  3020
  9
$PICKSTYLE
 70
     1
  9
$CMLSTYLE
  2
STANDARD
  9
$CMLJUST
 70
     0
  9
$CMLSCALE
 40
1.0
  9
$PROXYGRAPHICS
 70
     0
  9
$MEASUREMENT
 70
     1
  0
ENDSEC
  0
SECTION
  2
CLASSES
  0
CLASS
  1
ACDBDICTIONARYWDFLT
  2
AcDbDictionaryWithDefault
  3
ObjectDBX Classes
 90
        0
280
     0
281
     0
  0
CLASS
  1
TABLESTYLE
  2
AcDbTableStyle
  3
ObjectDBX Classes
 90
     2047
280
     0
281
     0
  0
CLASS
  1
DICTIONARYVAR
  2
AcDbDictionaryVar
  3
ObjectDBX Classes
 90
        0
280
     0
281
     0
  0
CLASS
  1
XRECORD
  2
AcDbXrecord
  3
AutoCAD 2000
 90
        0
280
     0
281
     0
  0
CLASS
  1
LWPOLYLINE
  2
AcDbPolyline
  3
AutoCAD 2000
 90
        0
280
     0
281
     1
  0
CLASS
  1
HATCH
  2
AcDbHatch
  3
AutoCAD 2000
 90
        0
280
     0
281
     1
  0
CLASS
  1
ACDBPLACEHOLDER
  2
AcDbPlaceHolder
  3
ObjectDBX Classes
 90
        0
280
     0
281
     0
  0
CLASS
  1
LAYOUT
  2
AcDbLayout
  3
ObjectDBX Classes
 90
        0
280
     0
281
     0
  0
ENDSEC
  0
SECTION
  2
TABLES
  0
TABLE
  2
VPORT
  5
8
330
0
100
AcDbSymbolTable
 70
     2
  0
VPORT
  5
29
102
{ACAD_XDICTIONARY
360
498
102
}
330
8
100
AcDbSymbolTableRecord
100
AcDbViewportTableRecord
  2
*ACTIVE
 70
     0
 10
0.0
 20
0.0
 11
1.0
 21
1.0
 12
450.0000000000001
 22
0.0000000000002274
 13
0.0
 23
0.0
 14
0.5
 24
0.5
 15
0.5
 25
0.5
 16
0.0
 26
0.0
 36
1.0
 17
0.0
 27
0.0
 37
0.0
 40
2968.200000000001
 41
1.737113402061855
 42
50.0
 43
0.0
 44
0.0
 50
0.0
 51
0.0
 71
     0
 72
   100
 73
     1
 74
     1
 75
     0
 76
     0
 77
     0
 78
     0
  0
ENDTAB
  0
TABLE
  2
LTYPE
  5
5
330
0
100
AcDbSymbolTable
 70
    28
  0
LTYPE
  5
14
330
5
100
AcDbSymbolTableRecord
100
AcDbLinetypeTableRecord
  2
BYBLOCK
 70
     0
  3

 72
    65
 73
     0
 40
0.0
  0
LTYPE
  5
15
330
5
100
AcDbSymbolTableRecord
100
AcDbLinetypeTableRecord
  2
BYLAYER
 70
     0
  3

 72
    65
 73
     0
 40
0.0
  0
LTYPE
  5
16
330
5
100
AcDbSymbolTableRecord
100
AcDbLinetypeTableRecord
  2
CONTINUOUS
 70
     0
  3
Solid line
 72
    65
 73
     0
 40
0.0
  0
LTYPE
  5
33
330
5
100
AcDbSymbolTableRecord
100
AcDbLinetypeTableRecord
  2
HIDDENX2
 70
     0
  3
CADPAC LINETYPE
 72
    65
 73
     2
 40
5.38043478260867
 49
4.035326086956502
 74
     0
 49
-1.345108695652167
 74
     0
  0
LTYPE
  5
34
330
5
100
AcDbSymbolTableRecord
100
AcDbLinetypeTableRecord
  2
HIDDEN
 70
     0
  3
CADPAC LINETYPE
 72
    65
 73
     2
 40
4.035326086956502
 49
2.690217391304335
 74
     0
 49
-1.345108695652167
 74
     0
  0
LTYPE
  5
35
330
5
100
AcDbSymbolTableRecord
100
AcDbLinetypeTableRecord
  2
HIDDEN2
 70
     0
  3
CADPAC LINETYPE
 72
    65
 73
     2
 40
3.362771739130419
 49
2.017663043478251
 74
     0
 49
-1.345108695652167
 74
     0
  0
LTYPE
  5
36
330
5
100
AcDbSymbolTableRecord
100
AcDbLinetypeTableRecord
  2
DASHED
 70
     0
  3
CADPAC LINETYPE
 72
    65
 73
     2
 40
3.766304347826038
 49
2.690217391304335
 74
     0
 49
-1.076086956521704
 74
     0
  0
LTYPE
  5
37
330
5
100
AcDbSymbolTableRecord
100
AcDbLinetypeTableRecord
  2
DASHED2
 70
     0
  3
CADPAC LINETYPE
 72
    65
 73
     2
 40
2.42119565217384
 49
1.614130434782571
 74
     0
 49
-0.80706521739127
 74
     0
  0
LTYPE
  5
38
330
5
100
AcDbSymbolTableRecord
100
AcDbLinetypeTableRecord
  2
DASHEDX2
 70
     0
  3
CADPAC LINETYPE
 72
    65
 73
     2
 40
6.456521739130373
 49
5.38043478260867
 74
     0
 49
-1.076086956521704
 74
     0
  0
LTYPE
  5
39
330
5
100
AcDbSymbolTableRecord
100
AcDbLinetypeTableRecord
  2
DOTX2
 70
     0
  3
CADPAC LINETYPE
 72
    65
 73
     2
 40
2.353940217391255
 49
0.0
 74
     0
 49
-2.353940217391255
 74
     0
  0
LTYPE
  5
3A
330
5
100
AcDbSymbolTableRecord
100
AcDbLinetypeTableRecord
  2
DOT
 70
     0
  3
CADPAC LINETYPE
 72
    65
 73
     2
 40
1.883152173913004
 49
0.0
 74
     0
 49
-1.883152173913004
 74
     0
  0
LTYPE
  5
3B
330
5
100
AcDbSymbolTableRecord
100
AcDbLinetypeTableRecord
  2
DOT2
 70
     0
  3
CADPAC LINETYPE
 72
    65
 73
     2
 40
1.412364130434753
 49
0.0
 74
     0
 49
-1.412364130434753
 74
     0
  0
LTYPE
  5
3C
330
5
100
AcDbSymbolTableRecord
100
AcDbLinetypeTableRecord
  2
CENTERX2
 70
     0
  3
CADPAC LINETYPE
 72
    65
 73
     4
 40
8.070652173913004
 49
3.362771739130419
 74
     0
 49
-1.681385869565209
 74
     0
 49
1.345108695652167
 74
     0
 49
-1.681385869565209
 74
     0
  0
LTYPE
  5
3D
330
5
100
AcDbSymbolTableRecord
100
AcDbLinetypeTableRecord
  2
CENTER
 70
     0
  3
CADPAC LINETYPE
 72
    65
 73
     4
 40
6.18749999999997
 49
2.690217391304335
 74
     0
 49
-1.345108695652167
 74
     0
 49
0.8070652173913004
 74
     0
 49
-1.345108695652167
 74
     0
  0
LTYPE
  5
3E
330
5
100
AcDbSymbolTableRecord
100
AcDbLinetypeTableRecord
  2
CENTER2
 70
     0
  3
CADPAC LINETYPE
 72
    65
 73
     4
 40
4.304347826086936
 49
2.017663043478251
 74
     0
 49
-1.008831521739126
 74
     0
 49
0.2690217391304335
 74
     0
 49
-1.008831521739126
 74
     0
  0
LTYPE
  5
3F
330
5
100
AcDbSymbolTableRecord
100
AcDbLinetypeTableRecord
  2
DASHDOTX2
 70
     0
  3
CADPAC LINETYPE
 72
    65
 73
     4
 40
12.91304347826084
 49
6.456521739130434
 74
     0
 49
-2.152173913043468
 74
     0
 49
2.152173913043468
 74
     0
 49
-2.152173913043468
 74
     0
  0
LTYPE
  5
40
330
5
100
AcDbSymbolTableRecord
100
AcDbLinetypeTableRecord
  2
DASHDOT
 70
     0
  3
CADPAC LINETYPE
 72
    65
 73
     4
 40
6.456521739130311
 49
3.228260869565201
 74
     0
 49
-1.076086956521704
 74
     0
 49
1.076086956521704
 74
     0
 49
-1.076086956521704
 74
     0
  0
LTYPE
  5
41
330
5
100
AcDbSymbolTableRecord
100
AcDbLinetypeTableRecord
  2
DASHDOT2
 70
     0
  3
CADPAC LINETYPE
 72
    65
 73
     4
 40
4.142934782608626
 49
2.421195652173901
 74
     0
 49
-0.8070652173912776
 74
     0
 49
0.1076086956521704
 74
     0
 49
-0.8070652173912776
 74
     0
  0
LTYPE
  5
42
330
5
100
AcDbSymbolTableRecord
100
AcDbLinetypeTableRecord
  2
DIVIDEX2
 70
     0
  3
CADPAC LINETYPE
 72
    65
 73
     6
 40
17.21739130434777
 49
6.456521739130434
 74
     0
 49
-2.152173913043468
 74
     0
 49
2.152173913043468
 74
     0
 49
-2.152173913043468
 74
     0
 49
2.152173913043468
 74
     0
 49
-2.152173913043468
 74
     0
  0
LTYPE
  5
43
330
5
100
AcDbSymbolTableRecord
100
AcDbLinetypeTableRecord
  2
DIVIDE
 70
     0
  3
CADPAC LINETYPE
 72
    65
 73
     6
 40
8.608695652173719
 49
3.228260869565201
 74
     0
 49
-1.076086956521704
 74
     0
 49
1.076086956521704
 74
     0
 49
-1.076086956521704
 74
     0
 49
1.076086956521704
 74
     0
 49
-1.076086956521704
 74
     0
  0
LTYPE
  5
44
330
5
100
AcDbSymbolTableRecord
100
AcDbLinetypeTableRecord
  2
DIVIDE2
 70
     0
  3
CADPAC LINETYPE
 72
    65
 73
     6
 40
6.456521739130289
 49
2.421195652173901
 74
     0
 49
-0.8070652173912776
 74
     0
 49
0.8070652173912776
 74
     0
 49
-0.8070652173912776
 74
     0
 49
0.8070652173912776
 74
     0
 49
-0.8070652173912776
 74
     0
  0
LTYPE
  5
45
330
5
100
AcDbSymbolTableRecord
100
AcDbLinetypeTableRecord
  2
BORDERX2
 70
     0
  3
CADPAC LINETYPE
 72
    65
 73
     6
 40
11.76970108695647
 49
3.362771739130419
 74
     0
 49
-1.681385869565209
 74
     0
 49
3.362771739130419
 74
     0
 49
-1.681385869565209
 74
     0
 49
0.0
 74
     0
 49
-1.681385869565209
 74
     0
  0
LTYPE
  5
46
330
5
100
AcDbSymbolTableRecord
100
AcDbLinetypeTableRecord
  2
BORDER
 70
     0
  3
CADPAC LINETYPE
 72
    65
 73
     6
 40
9.415760869565171
 49
2.690217391304335
 74
     0
 49
-1.345108695652167
 74
     0
 49
2.690217391304335
 74
     0
 49
-1.345108695652167
 74
     0
 49
0.0
 74
     0
 49
-1.345108695652167
 74
     0
  0
LTYPE
  5
47
330
5
100
AcDbSymbolTableRecord
100
AcDbLinetypeTableRecord
  2
BORDER2
 70
     0
  3
CADPAC LINETYPE
 72
    65
 73
     6
 40
6.994565217391179
 49
2.152173913043468
 74
     0
 49
-1.345108695652137
 74
     0
 49
0.80706521739127
 74
     0
 49
-1.345108695652137
 74
     0
 49
0.0
 74
     0
 49
-1.345108695652167
 74
     0
  0
LTYPE
  5
48
330
5
100
AcDbSymbolTableRecord
100
AcDbLinetypeTableRecord
  2
PHANTOMX2
 70
     0
  3
CADPAC LINETYPE
 72
    65
 73
     6
 40
10.08831521739126
 49
3.362771739130419
 74
     0
 49
-1.345108695652167
 74
     0
 49
1.345108695652167
 74
     0
 49
-1.345108695652167
 74
     0
 49
1.345108695652167
 74
     0
 49
-1.345108695652167
 74
     0
  0
LTYPE
  5
49
330
5
100
AcDbSymbolTableRecord
100
AcDbLinetypeTableRecord
  2
PHANTOM
 70
     0
  3
CADPAC LINETYPE
 72
    65
 73
     6
 40
8.339673913043438
 49
2.690217391304335
 74
     0
 49
-1.345108695652167
 74
     0
 49
0.8070652173913004
 74
     0
 49
-1.345108695652167
 74
     0
 49
0.8070652173913004
 74
     0
 49
-1.345108695652167
 74
     0
  0
LTYPE
  5
4A
330
5
100
AcDbSymbolTableRecord
100
AcDbLinetypeTableRecord
  2
PHANTOM2
 70
     0
  3
CADPAC LINETYPE
 72
    65
 73
     6
 40
7.129076086956487
 49
2.017663043478251
 74
     0
 49
-1.345108695652167
 74
     0
 49
0.538043478260867
 74
     0
 49
-1.345108695652167
 74
     0
 49
0.538043478260867
 74
     0
 49
-1.345108695652167
 74
     0
  0
LTYPE
  5
4B
330
5
100
AcDbSymbolTableRecord
100
AcDbLinetypeTableRecord
  2
ACAD_ISO06W100
 70
     0
  3
CADPAC LINETYPE
 72
    65
 73
     8
 40
14.25815217391279
 49
6.456521739130434
 74
     0
 49
-1.345108695652137
 74
     0
 49
0.80706521739127
 74
     0
 49
-1.345108695652137
 74
     0
 49
0.80706521739127
 74
     0
 49
-1.345108695652137
 74
     0
 49
0.80706521739127
 74
     0
 49
-1.345108695652137
 74
     0
  0
LTYPE
  5
4C
330
5
100
AcDbSymbolTableRecord
100
AcDbLinetypeTableRecord
  2
ACAD_ISO13W100
 70
     0
  3
CADPAC LINETYPE
 72
    65
 73
     8
 40
10.76086956521734
 49
2.690217391304335
 74
     0
 49
-1.345108695652167
 74
     0
 49
2.690217391304335
 74
     0
 49
-1.345108695652167
 74
     0
 49
0.0
 74
     0
 49
-1.345108695652167
 74
     0
 49
0.0
 74
     0
 49
-1.345108695652167
 74
     0
  0
LTYPE
  5
4D
330
5
100
AcDbSymbolTableRecord
100
AcDbLinetypeTableRecord
  2
ACAD_ISO14W100
 70
     0
  3
CADPAC LINETYPE
 72
    65
 73
     8
 40
8.070652173913004
 49
2.690217391304335
 74
     0
 49
-1.345108695652167
 74
     0
 49
0.0
 74
     0
 49
-1.345108695652167
 74
     0
 49
0.0
 74
     0
 49
-1.345108695652167
 74
     0
 49
0.0
 74
     0
 49
-1.345108695652167
 74
     0
  0
ENDTAB
  0
TABLE
  2
LAYER
  5
2
330
0
100
AcDbSymbolTable
 70
     4
  0
LAYER
  5
10
330
2
100
AcDbSymbolTableRecord
100
AcDbLayerTableRecord
  2
0
 70
     0
 62
     7
  6
CONTINUOUS
  0
LAYER
  5
2F
330
2
100
AcDbSymbolTableRecord
100
AcDbLayerTableRecord
  2
LAYER0016
 70
     0
 62
     7
  6
CONTINUOUS
  0
LAYER
  5
30
330
2
100
AcDbSymbolTableRecord
100
AcDbLayerTableRecord
  2
LAYER0064
 70
     0
 62
     7
  6
CONTINUOUS
  0
LAYER
  5
31
330
2
100
AcDbSymbolTableRecord
100
AcDbLayerTableRecord
  2
LAYER0144
 70
     0
 62
     7
  6
CONTINUOUS
  0
ENDTAB
  0
TABLE
  2
STYLE
  5
3
330
0
100
AcDbSymbolTable
 70
     3
  0
STYLE
  5
11
330
3
100
AcDbSymbolTableRecord
100
AcDbTextStyleTableRecord
  2
STANDARD
 70
     0
 40
0.0
 41
1.0
 50
0.0
 71
     0
 42
0.2
  3
txt
  4

  0
STYLE
  5
118
330
3
100
AcDbSymbolTableRecord
100
AcDbTextStyleTableRecord
  2
FDASTYLE0
 70
     0
 40
45.0
 41
0.8000000000000033
 50
0.0
 71
     0
 42
0.2
  3
txt.shx
  4
bigfont
  0
STYLE
  5
3B3
330
3
100
AcDbSymbolTableRecord
100
AcDbTextStyleTableRecord
  2
FDASTYLE1
 70
     0
 40
75.0
 41
0.77
 50
0.0
 71
     0
 42
0.2
  3
MSMINCHO.TTC
  4

1001
ACAD
1000
ＭＳ 明朝
1071
       34
  0
ENDTAB
  0
TABLE
  2
VIEW
  5
6
330
0
100
AcDbSymbolTable
 70
     0
  0
ENDTAB
  0
TABLE
  2
UCS
  5
7
330
0
100
AcDbSymbolTable
 70
     0
  0
ENDTAB
  0
TABLE
  2
APPID
  5
9
330
0
100
AcDbSymbolTable
 70
     2
  0
APPID
  5
12
330
9
100
AcDbSymbolTableRecord
100
AcDbRegAppTableRecord
  2
ACAD
 70
     0
  0
APPID
  5
2E
330
9
100
AcDbSymbolTableRecord
100
AcDbRegAppTableRecord
  2
DAFUSIONOUT
 70
     0
  0
ENDTAB
  0
TABLE
  2
DIMSTYLE
  5
A
330
0
100
AcDbSymbolTable
 70
     1
  0
DIMSTYLE
105
27
330
A
100
AcDbSymbolTableRecord
100
AcDbDimStyleTableRecord
  2
STANDARD
 70
     0
  3

  4

  5

  6

  7

 40
1.0
 41
0.18
 42
0.0625
 43
0.38
 44
0.18
 45
0.0
 46
0.0
 47
0.0
 48
0.0
140
0.18
141
0.09
142
0.0
143
25.4
144
1.0
145
0.0
146
1.0
147
0.09
 71
     0
 72
     0
 73
     1
 74
     1
 75
     0
 76
     0
 77
     0
 78
     0
170
     0
171
     2
172
     0
173
     0
174
     0
175
     0
176
     0
177
     0
178
     0
270
     2
271
     4
272
     4
273
     2
274
     2
340
11
275
     0
280
     0
281
     0
282
     0
283
     1
284
     0
285
     0
286
     0
287
     3
288
     0
  0
ENDTAB
  0
TABLE
  2
BLOCK_RECORD
  5
1
330
0
100
AcDbSymbolTable
 70
    65
  0
BLOCK_RECORD
  5
1F
330
1
100
AcDbSymbolTableRecord
100
AcDbBlockTableRecord
  2
*MODEL_SPACE
  0
BLOCK_RECORD
  5
1B
330
1
100
AcDbSymbolTableRecord
100
AcDbBlockTableRecord
  2
*PAPER_SPACE
  0
BLOCK_RECORD
  5
4E
330
1
100
AcDbSymbolTableRecord
100
AcDbBlockTableRecord
  2
GROUP_1
  0
BLOCK_RECORD
  5
51
330
1
100
AcDbSymbolTableRecord
100
AcDbBlockTableRecord
  2
DA_IMAGEDIMGROUP_1
  0
BLOCK_RECORD
  5
54
330
1
100
AcDbSymbolTableRecord
100
AcDbBlockTableRecord
  2
DA_IMAGEDIMGROUP_2
  0
BLOCK_RECORD
  5
57
330
1
100
AcDbSymbolTableRecord
100
AcDbBlockTableRecord
  2
GROUP_2
  0
BLOCK_RECORD
  5
5A
330
1
100
AcDbSymbolTableRecord
100
AcDbBlockTableRecord
  2
GROUP_3
  0
BLOCK_RECORD
  5
5D
330
1
100
AcDbSymbolTableRecord
100
AcDbBlockTableRecord
  2
GROUP_4
  0
BLOCK_RECORD
  5
60
330
1
100
AcDbSymbolTableRecord
100
AcDbBlockTableRecord
  2
GROUP_5
  0
BLOCK_RECORD
  5
63
330
1
100
AcDbSymbolTableRecord
100
AcDbBlockTableRecord
  2
GROUP_6
  0
BLOCK_RECORD
  5
66
330
1
100
AcDbSymbolTableRecord
100
AcDbBlockTableRecord
  2
GROUP_7
  0
BLOCK_RECORD
  5
69
330
1
100
AcDbSymbolTableRecord
100
AcDbBlockTableRecord
  2
GROUP_8
  0
BLOCK_RECORD
  5
6C
330
1
100
AcDbSymbolTableRecord
100
AcDbBlockTableRecord
  2
GROUP_9
  0
BLOCK_RECORD
  5
6F
330
1
100
AcDbSymbolTableRecord
100
AcDbBlockTableRecord
  2
GROUP_10
  0
BLOCK_RECORD
  5
72
330
1
100
AcDbSymbolTableRecord
100
AcDbBlockTableRecord
  2
GROUP_11
  0
BLOCK_RECORD
  5
75
330
1
100
AcDbSymbolTableRecord
100
AcDbBlockTableRecord
  2
GROUP_12
  0
BLOCK_RECORD
  5
78
330
1
100
AcDbSymbolTableRecord
100
AcDbBlockTableRecord
  2
GROUP_13
  0
BLOCK_RECORD
  5
7B
330
1
100
AcDbSymbolTableRecord
100
AcDbBlockTableRecord
  2
GROUP_14
  0
BLOCK_RECORD
  5
7E
330
1
100
AcDbSymbolTableRecord
100
AcDbBlockTableRecord
  2
GROUP_15
  0
BLOCK_RECORD
  5
81
330
1
100
AcDbSymbolTableRecord
100
AcDbBlockTableRecord
  2
GROUP_16
  0
BLOCK_RECORD
  5
84
330
1
100
AcDbSymbolTableRecord
100
AcDbBlockTableRecord
  2
GROUP_17
  0
BLOCK_RECORD
  5
87
330
1
100
AcDbSymbolTableRecord
100
AcDbBlockTableRecord
  2
GROUP_18
  0
BLOCK_RECORD
  5
8A
330
1
100
AcDbSymbolTableRecord
100
AcDbBlockTableRecord
  2
GROUP_19
  0
BLOCK_RECORD
  5
8D
330
1
100
AcDbSymbolTableRecord
100
AcDbBlockTableRecord
  2
GROUP_20
  0
BLOCK_RECORD
  5
90
330
1
100
AcDbSymbolTableRecord
100
AcDbBlockTableRecord
  2
GROUP_21
  0
BLOCK_RECORD
  5
93
330
1
100
AcDbSymbolTableRecord
100
AcDbBlockTableRecord
  2
GROUP_22
  0
BLOCK_RECORD
  5
96
330
1
100
AcDbSymbolTableRecord
100
AcDbBlockTableRecord
  2
GROUP_23
  0
BLOCK_RECORD
  5
99
330
1
100
AcDbSymbolTableRecord
100
AcDbBlockTableRecord
  2
GROUP_24
  0
BLOCK_RECORD
  5
9C
330
1
100
AcDbSymbolTableRecord
100
AcDbBlockTableRecord
  2
GROUP_25
  0
BLOCK_RECORD
  5
9F
330
1
100
AcDbSymbolTableRecord
100
AcDbBlockTableRecord
  2
GROUP_26
  0
BLOCK_RECORD
  5
A2
330
1
100
AcDbSymbolTableRecord
100
AcDbBlockTableRecord
  2
GROUP_27
  0
BLOCK_RECORD
  5
A5
330
1
100
AcDbSymbolTableRecord
100
AcDbBlockTableRecord
  2
GROUP_28
  0
BLOCK_RECORD
  5
A8
330
1
100
AcDbSymbolTableRecord
100
AcDbBlockTableRecord
  2
GROUP_29
  0
BLOCK_RECORD
  5
AB
330
1
100
AcDbSymbolTableRecord
100
AcDbBlockTableRecord
  2
GROUP_30
  0
BLOCK_RECORD
  5
AE
330
1
100
AcDbSymbolTableRecord
100
AcDbBlockTableRecord
  2
GROUP_31
  0
BLOCK_RECORD
  5
B1
330
1
100
AcDbSymbolTableRecord
100
AcDbBlockTableRecord
  2
GROUP_32
  0
BLOCK_RECORD
  5
B4
330
1
100
AcDbSymbolTableRecord
100
AcDbBlockTableRecord
  2
GROUP_33
  0
BLOCK_RECORD
  5
B7
330
1
100
AcDbSymbolTableRecord
100
AcDbBlockTableRecord
  2
GROUP_34
  0
BLOCK_RECORD
  5
BA
330
1
100
AcDbSymbolTableRecord
100
AcDbBlockTableRecord
  2
GROUP_35
  0
BLOCK_RECORD
  5
BD
330
1
100
AcDbSymbolTableRecord
100
AcDbBlockTableRecord
  2
GROUP_36
  0
BLOCK_RECORD
  5
C0
330
1
100
AcDbSymbolTableRecord
100
AcDbBlockTableRecord
  2
GROUP_37
  0
BLOCK_RECORD
  5
C3
330
1
100
AcDbSymbolTableRecord
100
AcDbBlockTableRecord
  2
GROUP_38
  0
BLOCK_RECORD
  5
C6
330
1
100
AcDbSymbolTableRecord
100
AcDbBlockTableRecord
  2
GROUP_39
  0
BLOCK_RECORD
  5
C9
330
1
100
AcDbSymbolTableRecord
100
AcDbBlockTableRecord
  2
GROUP_40
  0
BLOCK_RECORD
  5
CC
330
1
100
AcDbSymbolTableRecord
100
AcDbBlockTableRecord
  2
GROUP_41
  0
BLOCK_RECORD
  5
CF
330
1
100
AcDbSymbolTableRecord
100
AcDbBlockTableRecord
  2
GROUP_42
  0
BLOCK_RECORD
  5
D2
330
1
100
AcDbSymbolTableRecord
100
AcDbBlockTableRecord
  2
GROUP_43
  0
BLOCK_RECORD
  5
D5
330
1
100
AcDbSymbolTableRecord
100
AcDbBlockTableRecord
  2
GROUP_44
  0
BLOCK_RECORD
  5
D8
330
1
100
AcDbSymbolTableRecord
100
AcDbBlockTableRecord
  2
DA_IMAGEDIMGROUP_3
  0
BLOCK_RECORD
  5
DB
330
1
100
AcDbSymbolTableRecord
100
AcDbBlockTableRecord
  2
DA_IMAGEDIMGROUP_4
  0
BLOCK_RECORD
  5
DE
330
1
100
AcDbSymbolTableRecord
100
AcDbBlockTableRecord
  2
DA_IMAGEDIMGROUP_5
  0
BLOCK_RECORD
  5
E1
330
1
100
AcDbSymbolTableRecord
100
AcDbBlockTableRecord
  2
DA_IMAGEDIMGROUP_6
  0
BLOCK_RECORD
  5
E4
330
1
100
AcDbSymbolTableRecord
100
AcDbBlockTableRecord
  2
DA_IMAGEDIMGROUP_7
  0
BLOCK_RECORD
  5
E7
330
1
100
AcDbSymbolTableRecord
100
AcDbBlockTableRecord
  2
DA_IMAGEDIMGROUP_8
  0
BLOCK_RECORD
  5
EA
330
1
100
AcDbSymbolTableRecord
100
AcDbBlockTableRecord
  2
DA_IMAGEDIMGROUP_9
  0
BLOCK_RECORD
  5
ED
330
1
100
AcDbSymbolTableRecord
100
AcDbBlockTableRecord
  2
GROUP_45
  0
BLOCK_RECORD
  5
F0
330
1
100
AcDbSymbolTableRecord
100
AcDbBlockTableRecord
  2
GROUP_46
  0
BLOCK_RECORD
  5
F3
330
1
100
AcDbSymbolTableRecord
100
AcDbBlockTableRecord
  2
GROUP_47
  0
BLOCK_RECORD
  5
F6
330
1
100
AcDbSymbolTableRecord
100
AcDbBlockTableRecord
  2
DA_IMAGEDIMGROUP_10
  0
BLOCK_RECORD
  5
F9
330
1
100
AcDbSymbolTableRecord
100
AcDbBlockTableRecord
  2
GROUP_48
  0
BLOCK_RECORD
  5
FC
330
1
100
AcDbSymbolTableRecord
100
AcDbBlockTableRecord
  2
DA_IMAGEDIMGROUP_11
  0
BLOCK_RECORD
  5
FF
330
1
100
AcDbSymbolTableRecord
100
AcDbBlockTableRecord
  2
DA_IMAGEDIMGROUP_12
  0
BLOCK_RECORD
  5
102
330
1
100
AcDbSymbolTableRecord
100
AcDbBlockTableRecord
  2
DA_IMAGEDIMGROUP_13
  0
BLOCK_RECORD
  5
105
330
1
100
AcDbSymbolTableRecord
100
AcDbBlockTableRecord
  2
DA_IMAGEDIMGROUP_14
  0
BLOCK_RECORD
  5
108
330
1
100
AcDbSymbolTableRecord
100
AcDbBlockTableRecord
  2
GROUP_49
  0
BLOCK_RECORD
  5
110
330
1
100
AcDbSymbolTableRecord
100
AcDbBlockTableRecord
  2
_OPEN30
  0
ENDTAB
  0
ENDSEC
  0
SECTION
  2
BLOCKS
  0
BLOCK
  5
20
330
1F
100
AcDbEntity
  8
0
100
AcDbBlockBegin
  2
*MODEL_SPACE
 70
     0
 71
     0
 10
0.0
 20
0.0
 30
0.0
  3
*MODEL_SPACE
  1

  0
ENDBLK
  5
21
330
1F
100
AcDbEntity
  8
0
100
AcDbBlockEnd
  0
BLOCK
  5
1C
330
1B
100
AcDbEntity
 67
     1
  8
0
100
AcDbBlockBegin
  2
*PAPER_SPACE
 70
     0
 71
     0
 10
0.0
 20
0.0
 30
0.0
  3
*PAPER_SPACE
  1

  0
ENDBLK
  5
1D
330
1B
100
AcDbEntity
 67
     1
  8
0
100
AcDbBlockEnd
  0
BLOCK
  5
4F
330
4E
100
AcDbEntity
  8
0
100
AcDbBlockBegin
  2
GROUP_1
 70
     0
 71
     0
 10
0.0
 20
0.0
 30
0.0
  3
GROUP_1
  1

  0
LINE
  5
10B
330
4E
100
AcDbEntity
  8
0
 62
     7
100
AcDbLine
 10
-2077.5
 20
-1455.0
 30
0.0
 11
2077.5
 21
-1455.0
 31
0.0
  0
LINE
  5
10C
330
4E
100
AcDbEntity
  8
0
 62
     7
100
AcDbLine
 10
2077.500000000001
 20
1455.000000000001
 30
0.0
 11
-2077.5
 21
1455.000000000001
 31
0.0
  0
LINE
  5
10D
330
4E
100
AcDbEntity
  8
0
 62
     7
100
AcDbLine
 10
-2077.5
 20
1455.000000000001
 30
0.0
 11
-2077.5
 21
-1455.0
 31
0.0
  0
LINE
  5
10E
330
4E
100
AcDbEntity
  8
0
 62
     7
100
AcDbLine
 10
2077.5
 20
-1455.0
 30
0.0
 11
2077.500000000001
 21
1455.000000000001
 31
0.0
  0
ENDBLK
  5
50
330
4E
100
AcDbEntity
  8
0
100
AcDbBlockEnd
  0
BLOCK
  5
52
330
51
100
AcDbEntity
  8
0
100
AcDbBlockBegin
  2
DA_IMAGEDIMGROUP_1
 70
     0
 71
     0
 10
0.0
 20
0.0
 30
0.0
  3
DA_IMAGEDIMGROUP_1
  1

  0
ARC
  5
10F
330
51
100
AcDbEntity
  8
LAYER0016
 62
     8
100
AcDbCircle
 10
-810.9012822932418
 20
-1234.784515864203
 30
0.0
 40
364.2404845034327
100
AcDbArc
 50
0.0
 51
49.99970209244635
  0
INSERT
  5
116
330
51
100
AcDbEntity
  8
LAYER0016
 62
     8
100
AcDbBlockReference
  2
_OPEN30
 10
-446.6607977898091
 20
-1234.784515864203
 30
0.0
 41
29.99997611445993
 42
30.00008592479957
 50
273.1853667686656
  0
INSERT
  5
117
330
51
100
AcDbEntity
  8
LAYER0016
 62
     8
100
AcDbBlockReference
  2
_OPEN30
 10
-576.7705611330337
 20
-955.7613341027294
 30
0.0
 41
29.99997611445993
 42
30.00008592479957
 50
136.8143353237807
  0
TEXT
  5
119
330
51
100
AcDbEntity
  8
LAYER0016
 62
     7
100
AcDbText
 10
-474.7993476602122
 20
-1058.197895129978
 30
0.0
 40
45.0
  1
F
 50
294.9998510462232
 41
0.9882352941176511
  7
FDASTYLE0
 72
     5
 11
-459.5851750593232
 21
-1090.825015016207
 31
0.0
100
AcDbText
  0
ENDBLK
  5
53
330
51
100
AcDbEntity
  8
0
100
AcDbBlockEnd
  0
BLOCK
  5
55
330
54
100
AcDbEntity
  8
0
100
AcDbBlockBegin
  2
DA_IMAGEDIMGROUP_2
 70
     0
 71
     0
 10
0.0
 20
0.0
 30
0.0
  3
DA_IMAGEDIMGROUP_2
  1

  0
LINE
  5
11A
330
54
100
AcDbEntity
  8
LAYER0016
 62
     8
100
AcDbLine
 10
-525.2867486708024
 20
-1337.884284384614
 30
0.0
 11
-695.0180582204289
 21
-1135.606386453126
 31
0.0
  0
INSERT
  5
11B
330
54
100
AcDbEntity
  8
LAYER0016
 62
     8
100
AcDbBlockReference
  2
_OPEN30
 10
-695.0180582204289
 20
-1135.606386453126
 30
0.0
 41
29.99997611445993
 42
30.00008592479957
 50
129.9999999999999
  0
LINE
  5
11C
330
54
100
AcDbEntity
  8
LAYER0016
 62
     8
100
AcDbLine
 10
-459.2867486708023
 20
-1337.884284384614
 30
0.0
 11
-525.2867486708024
 21
-1337.884284384614
 31
0.0
  0
TEXT
  5
11D
330
54
100
AcDbEntity
  8
LAYER0016
 62
     7
100
AcDbText
 10
-510.2867486708023
 20
-1322.884284384614
 30
0.0
 40
45.0
  1
K
 41
0.9333333333333334
  7
FDASTYLE0
 72
     5
 11
-474.2867486708023
 21
-1322.884284384614
 31
0.0
100
AcDbText
  0
ENDBLK
  5
56
330
54
100
AcDbEntity
  8
0
100
AcDbBlockEnd
  0
BLOCK
  5
58
330
57
100
AcDbEntity
  8
0
100
AcDbBlockBegin
  2
GROUP_2
 70
     0
 71
     0
 10
0.0
 20
0.0
 30
0.0
  3
GROUP_2
  1

  0
LINE
  5
11E
330
57
100
AcDbEntity
  8
0
  6
CENTER
 62
     9
100
AcDbLine
 10
-1761.276399631618
 20
947.014945652174
 30
0.0
 11
332.5000000000007
 21
947.014945652174
 31
0.0
  0
LINE
  5
11F
330
57
100
AcDbEntity
  8
0
  6
CENTER
 62
     9
100
AcDbLine
 10
-1611.276399631618
 20
1154.014945652174
 30
0.0
 11
-1611.276399631618
 21
740.014945652174
 31
0.0
  0
LINE
  5
120
330
57
100
AcDbEntity
  8
0
  6
CENTER
 62
     9
100
AcDbLine
 10
-948.2763996316182
 20
1154.014945652174
 30
0.0
 11
-948.2763996316182
 21
740.014945652174
 31
0.0
  0
LINE
  5
121
330
57
100
AcDbEntity
  8
0
 62
     4
100
AcDbLine
 10
272.5000000000005
 20
800.014945652174
 30
0.0
 11
272.5000000000005
 21
1094.014945652174
 31
0.0
  0
LINE
  5
122
330
57
100
AcDbEntity
  8
0
 62
     4
100
AcDbLine
 10
172.5000000000027
 20
800.014945652174
 30
0.0
 11
172.5000000000027
 21
1094.014945652174
 31
0.0
  0
LINE
  5
123
330
57
100
AcDbEntity
  8
0
 62
     4
100
AcDbLine
 10
264.0838670112519
 20
1094.014945652174
 30
0.0
 11
264.0838670112519
 21
800.014945652174
 31
0.0
  0
LINE
  5
124
330
57
100
AcDbEntity
  8
0
 62
     4
100
AcDbLine
 10
-1701.276399631618
 20
1094.014945652174
 30
0.0
 11
-1701.276399631618
 21
800.014945652174
 31
0.0
  0
LINE
  5
125
330
57
100
AcDbEntity
  8
0
 62
     4
100
AcDbLine
 10
-948.2770192288533
 20
1054.014945652174
 30
0.0
 11
-948.2770192288533
 21
840.014945652174
 31
0.0
  0
LINE
  5
126
330
57
100
AcDbEntity
  8
0
 62
     4
100
AcDbLine
 10
-1701.276399631618
 20
1094.014945652174
 30
0.0
 11
272.5000000000005
 21
1094.014945652174
 31
0.0
  0
LINE
  5
127
330
57
100
AcDbEntity
  8
0
 62
     4
100
AcDbLine
 10
-1701.276399631618
 20
800.014945652174
 30
0.0
 11
272.5000000000005
 21
800.014945652174
 31
0.0
  0
LINE
  5
128
330
57
100
AcDbEntity
  8
0
 62
     4
100
AcDbLine
 10
-1651.276399631618
 20
1054.014945652174
 30
0.0
 11
-1651.276399631618
 21
840.014945652174
 31
0.0
  0
LINE
  5
129
330
57
100
AcDbEntity
  8
0
 62
     4
100
AcDbLine
 10
-1651.276399631618
 20
1054.014945652174
 30
0.0
 11
-948.2770192288533
 21
1054.014945652174
 31
0.0
  0
LINE
  5
12A
330
57
100
AcDbEntity
  8
0
 62
     4
100
AcDbLine
 10
-794.3070735785216
 20
1054.014945652293
 30
0.0
 11
-13.90475626782973
 21
1054.014945652206
 31
0.0
  0
LINE
  5
12B
330
57
100
AcDbEntity
  8
0
 62
     4
100
AcDbLine
 10
-13.90475626782973
 20
840.014945652174
 30
0.0
 11
-794.3070735785216
 21
840.014945652174
 31
0.0
  0
LINE
  5
12C
330
57
100
AcDbEntity
  8
0
 62
     4
100
AcDbLine
 10
-948.2770192288533
 20
840.014945652174
 30
0.0
 11
-1651.276399631618
 21
840.014945652174
 31
0.0
  0
LINE
  5
12D
330
57
100
AcDbEntity
  8
0
 62
     4
100
AcDbLine
 10
-794.3070735785216
 20
1054.014945652293
 30
0.0
 11
-794.3018393027912
 21
840.0149456522927
 31
0.0
  0
LINE
  5
12E
330
57
100
AcDbEntity
  8
0
 62
     4
100
AcDbLine
 10
18.23450090380902
 20
800.014945652174
 30
0.0
 11
18.23450090380902
 21
1094.014945652174
 31
0.0
  0
LINE
  5
12F
330
57
100
AcDbEntity
  8
0
 62
     4
100
AcDbLine
 10
-13.90475626782973
 20
1054.014945652206
 30
0.0
 11
-13.90475626782973
 21
840.014945652174
 31
0.0
  0
ENDBLK
  5
59
330
57
100
AcDbEntity
  8
0
100
AcDbBlockEnd
  0
BLOCK
  5
5B
330
5A
100
AcDbEntity
  8
0
100
AcDbBlockBegin
  2
GROUP_3
 70
     0
 71
     0
 10
0.0
 20
0.0
 30
0.0
  3
GROUP_3
  1

  0
LINE
  5
135
330
5A
100
AcDbEntity
  8
0
 62
     7
100
AcDbLine
 10
-100.8117106143542
 20
1204.014945652174
 30
0.0
 11
182.4523027086923
 21
1204.014945652174
 31
0.0
  0
LINE
  5
136
330
5A
100
AcDbEntity
  8
0
 62
     7
100
AcDbLine
 10
-100.8117106143542
 20
1204.014945652174
 30
0.0
 11
-100.8117106143542
 21
1094.014945652174
 31
0.0
  0
LINE
  5
137
330
5A
100
AcDbEntity
  8
0
 62
     7
100
AcDbLine
 10
59.88519162287321
 20
1204.014945652174
 30
0.0
 11
59.88519162287321
 21
1094.014945652174
 31
0.0
  0
LINE
  5
138
330
5A
100
AcDbEntity
  8
0
 62
     7
100
AcDbLine
 10
182.4523027086923
 20
1204.014945652174
 30
0.0
 11
182.4523027086923
 21
1094.014945652174
 31
0.0
  0
ENDBLK
  5
5C
330
5A
100
AcDbEntity
  8
0
100
AcDbBlockEnd
  0
BLOCK
  5
5E
330
5D
100
AcDbEntity
  8
0
100
AcDbBlockBegin
  2
GROUP_4
 70
     0
 71
     0
 10
0.0
 20
0.0
 30
0.0
  3
GROUP_4
  1

  0
LINE
  5
139
330
5D
100
AcDbEntity
  8
0
 62
     7
100
AcDbLine
 10
-100.811580512357
 20
755.014945652174
 30
0.0
 11
-100.811580512357
 21
800.014945652174
 31
0.0
  0
LINE
  5
13A
330
5D
100
AcDbEntity
  8
0
 62
     7
100
AcDbLine
 10
-100.811580512357
 20
755.014945652174
 30
0.0
 11
144.1502104622937
 21
755.014945652174
 31
0.0
  0
LINE
  5
13B
330
5D
100
AcDbEntity
  8
0
 62
     7
100
AcDbLine
 10
59.88532172569444
 20
755.014945652174
 30
0.0
 11
59.88532172569444
 21
800.014945652174
 31
0.0
  0
LINE
  5
13C
330
5D
100
AcDbEntity
  8
0
 62
     7
100
AcDbLine
 10
144.1502104622937
 20
755.014945652174
 30
0.0
 11
144.1502104622937
 21
800.014945652174
 31
0.0
  0
ENDBLK
  5
5F
330
5D
100
AcDbEntity
  8
0
100
AcDbBlockEnd
  0
BLOCK
  5
61
330
60
100
AcDbEntity
  8
0
100
AcDbBlockBegin
  2
GROUP_5
 70
     0
 71
     0
 10
0.0
 20
0.0
 30
0.0
  3
GROUP_5
  1

  0
LINE
  5
13D
330
60
100
AcDbEntity
  8
0
 62
    32
100
AcDbLine
 10
-305.6763996316178
 20
800.014945652174
 30
0.0
 11
-305.6763996316178
 21
768.514945652174
 31
0.0
  0
LINE
  5
13E
330
60
100
AcDbEntity
  8
0
 62
    32
100
AcDbLine
 10
-305.6763996316178
 20
768.514945652174
 30
0.0
 11
-240.6763996316178
 21
768.514945652174
 31
0.0
  0
LINE
  5
13F
330
60
100
AcDbEntity
  8
0
 62
    32
100
AcDbLine
 10
-240.6763996316178
 20
768.514945652174
 30
0.0
 11
-240.6763996316178
 21
800.014945652174
 31
0.0
  0
LINE
  5
140
330
60
100
AcDbEntity
  8
0
  6
CENTER
 62
     9
100
AcDbLine
 10
-273.1763996316178
 20
800.014945652174
 30
0.0
 11
-273.1763996316178
 21
750.1759510869579
 31
0.0
  0
ENDBLK
  5
62
330
60
100
AcDbEntity
  8
0
100
AcDbBlockEnd
  0
BLOCK
  5
64
330
63
100
AcDbEntity
  8
0
100
AcDbBlockBegin
  2
GROUP_6
 70
     0
 71
     0
 10
0.0
 20
0.0
 30
0.0
  3
GROUP_6
  1

  0
ENDBLK
  5
65
330
63
100
AcDbEntity
  8
0
100
AcDbBlockEnd
  0
BLOCK
  5
67
330
66
100
AcDbEntity
  8
0
100
AcDbBlockBegin
  2
GROUP_7
 70
     0
 71
     0
 10
0.0
 20
0.0
 30
0.0
  3
GROUP_7
  1

  0
LINE
  5
143
330
66
100
AcDbEntity
  8
0
 62
    32
100
AcDbLine
 10
-251.3763996316178
 20
780.014945652174
 30
0.0
 11
-294.9763996316178
 21
780.014945652174
 31
0.0
  0
LINE
  5
144
330
66
100
AcDbEntity
  8
0
 62
    32
100
AcDbLine
 10
-298.1763996316179
 20
783.2149456521738
 30
0.0
 11
-298.1763996316179
 21
796.8149456521733
 31
0.0
  0
LINE
  5
145
330
66
100
AcDbEntity
  8
0
 62
    32
100
AcDbLine
 10
-294.9763996316178
 20
800.014945652174
 30
0.0
 11
-251.3763996316178
 21
800.014945652174
 31
0.0
  0
LINE
  5
146
330
66
100
AcDbEntity
  8
0
 62
    32
100
AcDbLine
 10
-248.1763996316178
 20
796.8149456521733
 30
0.0
 11
-248.1763996316178
 21
783.2149456521738
 31
0.0
  0
ARC
  5
147
330
66
100
AcDbEntity
  8
0
 62
    32
100
AcDbCircle
 10
-251.3763996316178
 20
783.2149456521738
 30
0.0
 40
3.2
100
AcDbArc
 50
270.0
 51
360.0
  0
ARC
  5
148
330
66
100
AcDbEntity
  8
0
 62
    32
100
AcDbCircle
 10
-294.9763996316178
 20
783.2149456521738
 30
0.0
 40
3.2
100
AcDbArc
 50
180.0
 51
270.0
  0
ARC
  5
149
330
66
100
AcDbEntity
  8
0
 62
    32
100
AcDbCircle
 10
-294.9763996316178
 20
796.8149456521733
 30
0.0
 40
3.2
100
AcDbArc
 50
90.0
 51
180.0
  0
ARC
  5
14A
330
66
100
AcDbEntity
  8
0
 62
    32
100
AcDbCircle
 10
-251.3763996316178
 20
796.8149456521733
 30
0.0
 40
3.2
100
AcDbArc
 50
360.0
 51
90.0
  0
ENDBLK
  5
68
330
66
100
AcDbEntity
  8
0
100
AcDbBlockEnd
  0
BLOCK
  5
6A
330
69
100
AcDbEntity
  8
0
100
AcDbBlockBegin
  2
GROUP_8
 70
     0
 71
     0
 10
0.0
 20
0.0
 30
0.0
  3
GROUP_8
  1

  0
LINE
  5
14B
330
69
100
AcDbEntity
  8
0
 62
    32
100
AcDbLine
 10
-305.6763996316178
 20
1094.014945652174
 30
0.0
 11
-305.6763996316178
 21
1125.514945652174
 31
0.0
  0
LINE
  5
14C
330
69
100
AcDbEntity
  8
0
 62
    32
100
AcDbLine
 10
-305.6763996316178
 20
1125.514945652174
 30
0.0
 11
-240.6763996316178
 21
1125.514945652174
 31
0.0
  0
LINE
  5
14D
330
69
100
AcDbEntity
  8
0
 62
    32
100
AcDbLine
 10
-240.6763996316178
 20
1125.514945652174
 30
0.0
 11
-240.6763996316178
 21
1094.014945652174
 31
0.0
  0
LINE
  5
14E
330
69
100
AcDbEntity
  8
0
  6
CENTER
 62
     9
100
AcDbLine
 10
-273.1763996316178
 20
1094.014945652174
 30
0.0
 11
-273.1763996316178
 21
1143.853940217389
 31
0.0
  0
ENDBLK
  5
6B
330
69
100
AcDbEntity
  8
0
100
AcDbBlockEnd
  0
BLOCK
  5
6D
330
6C
100
AcDbEntity
  8
0
100
AcDbBlockBegin
  2
GROUP_9
 70
     0
 71
     0
 10
0.0
 20
0.0
 30
0.0
  3
GROUP_9
  1

  0
ENDBLK
  5
6E
330
6C
100
AcDbEntity
  8
0
100
AcDbBlockEnd
  0
BLOCK
  5
70
330
6F
100
AcDbEntity
  8
0
100
AcDbBlockBegin
  2
GROUP_10
 70
     0
 71
     0
 10
0.0
 20
0.0
 30
0.0
  3
GROUP_10
  1

  0
LINE
  5
151
330
6F
100
AcDbEntity
  8
0
 62
    32
100
AcDbLine
 10
-251.3763996316178
 20
1114.014945652174
 30
0.0
 11
-294.9763996316178
 21
1114.014945652174
 31
0.0
  0
LINE
  5
152
330
6F
100
AcDbEntity
  8
0
 62
    32
100
AcDbLine
 10
-298.1763996316179
 20
1110.814945652173
 30
0.0
 11
-298.1763996316179
 21
1097.214945652174
 31
0.0
  0
LINE
  5
153
330
6F
100
AcDbEntity
  8
0
 62
    32
100
AcDbLine
 10
-294.9763996316178
 20
1094.014945652174
 30
0.0
 11
-251.3763996316178
 21
1094.014945652174
 31
0.0
  0
LINE
  5
154
330
6F
100
AcDbEntity
  8
0
 62
    32
100
AcDbLine
 10
-248.1763996316178
 20
1097.214945652174
 30
0.0
 11
-248.1763996316178
 21
1110.814945652173
 31
0.0
  0
ARC
  5
155
330
6F
100
AcDbEntity
  8
0
 62
    32
100
AcDbCircle
 10
-251.3763996316178
 20
1110.814945652173
 30
0.0
 40
3.2
100
AcDbArc
 50
0.000000000000014
 51
90.00000000000001
  0
ARC
  5
156
330
6F
100
AcDbEntity
  8
0
 62
    32
100
AcDbCircle
 10
-294.9763996316178
 20
1110.814945652173
 30
0.0
 40
3.2
100
AcDbArc
 50
90.00000000000001
 51
180.0
  0
ARC
  5
157
330
6F
100
AcDbEntity
  8
0
 62
    32
100
AcDbCircle
 10
-294.9763996316178
 20
1097.214945652174
 30
0.0
 40
3.2
100
AcDbArc
 50
180.0
 51
270.0
  0
ARC
  5
158
330
6F
100
AcDbEntity
  8
0
 62
    32
100
AcDbCircle
 10
-251.3763996316178
 20
1097.214945652174
 30
0.0
 40
3.2
100
AcDbArc
 50
270.0
 51
360.0
  0
ENDBLK
  5
71
330
6F
100
AcDbEntity
  8
0
100
AcDbBlockEnd
  0
BLOCK
  5
73
330
72
100
AcDbEntity
  8
0
100
AcDbBlockBegin
  2
GROUP_11
 70
     0
 71
     0
 10
0.0
 20
0.0
 30
0.0
  3
GROUP_11
  1

  0
LINE
  5
159
330
72
100
AcDbEntity
  8
0
 62
     7
100
AcDbLine
 10
-67.51221506941914
 20
731.3149622818683
 30
0.0
 11
-109.8657734747025
 21
731.3149622818692
 31
0.0
  0
ARC
  5
15A
330
72
100
AcDbEntity
  8
0
 62
     7
100
AcDbCircle
 10
-109.8657734747025
 20
729.3149622818692
 30
0.0
 40
2.0
100
AcDbArc
 50
89.99999999999837
 51
149.9999999999995
  0
LINE
  5
15B
330
72
100
AcDbEntity
  8
0
 62
     7
100
AcDbLine
 10
-143.8657420034512
 20
745.8149566939337
 30
0.0
 11
-241.8657657857036
 21
745.8149566939337
 31
0.0
  0
LINE
  5
15C
330
72
100
AcDbEntity
  8
0
 62
     7
100
AcDbLine
 10
-241.8657657857036
 20
626.8149678698046
 30
0.0
 11
-143.8657420034512
 21
626.8149678698046
 31
0.0
  0
LINE
  5
15D
330
72
100
AcDbEntity
  8
0
 62
     7
100
AcDbLine
 10
-143.8657420034512
 20
626.8149678698046
 30
0.0
 11
-143.8657420034512
 21
745.8149566939337
 31
0.0
  0
LINE
  5
15E
330
72
100
AcDbEntity
  8
0
 62
     7
100
AcDbLine
 10
-241.8657657857036
 20
745.8149566939337
 30
0.0
 11
-241.8657657857036
 21
626.8149678698046
 31
0.0
  0
LINE
  5
15F
330
72
100
AcDbEntity
  8
0
 62
     7
100
AcDbLine
 10
-241.8657657857036
 20
739.0649683391912
 30
0.0
 11
-248.8664827401519
 21
739.0649683391912
 31
0.0
  0
LINE
  5
160
330
72
100
AcDbEntity
  8
0
 62
     7
100
AcDbLine
 10
-248.8664827401519
 20
739.0649683391912
 30
0.0
 11
-248.8664827401519
 21
633.5649791127298
 31
0.0
  0
LINE
  5
161
330
72
100
AcDbEntity
  8
0
 62
     7
100
AcDbLine
 10
-248.8664827401519
 20
633.5649791127298
 30
0.0
 11
-241.8657657857036
 21
633.5649791127298
 31
0.0
  0
LINE
  5
162
330
72
100
AcDbEntity
  8
0
 62
     7
100
AcDbLine
 10
-248.8664827401519
 20
641.3150551757053
 30
0.0
 11
-252.8664902503369
 21
641.3150551757053
 31
0.0
  0
LINE
  5
163
330
72
100
AcDbEntity
  8
0
 62
     7
100
AcDbLine
 10
-252.8664902503369
 20
641.3150551757053
 30
0.0
 11
-252.8664902503369
 21
731.3149609407647
 31
0.0
  0
LINE
  5
164
330
72
100
AcDbEntity
  8
0
 62
     7
100
AcDbLine
 10
-252.8664902503369
 20
731.3149609407647
 30
0.0
 11
-248.8664827401519
 21
731.3149609407647
 31
0.0
  0
LINE
  5
165
330
72
100
AcDbEntity
  8
0
 62
     7
100
AcDbLine
 10
-139.6332451349926
 20
634.3149485131962
 30
0.0
 11
-143.8657420034512
 21
634.3149485131962
 31
0.0
  0
LINE
  5
166
330
72
100
AcDbEntity
  8
0
 62
     7
100
AcDbLine
 10
-138.86577267004
 20
634.4680630225557
 30
0.0
 11
-138.86577267004
 21
738.1618615411826
 31
0.0
  0
LINE
  5
167
330
72
100
AcDbEntity
  8
0
 62
     7
100
AcDbLine
 10
-139.6332451349926
 20
738.3149760505421
 30
0.0
 11
-143.8657420034512
 21
738.3149760505421
 31
0.0
  0
LINE
  5
168
330
72
100
AcDbEntity
  8
0
 62
     7
100
AcDbLine
 10
-113.3298750898404
 20
643.3149622818692
 30
0.0
 11
-128.0982928737162
 21
643.3149622818692
 31
0.0
  0
LINE
  5
169
330
72
100
AcDbEntity
  8
0
 62
     7
100
AcDbLine
 10
-113.3298750898404
 20
729.3149622818692
 30
0.0
 11
-128.0982928737162
 21
729.3149622818692
 31
0.0
  0
LINE
  5
16A
330
72
100
AcDbEntity
  8
0
 62
     7
100
AcDbLine
 10
-65.86244193374563
 20
641.3149622818683
 30
0.0
 11
-109.8657734747027
 21
641.3149622818692
 31
0.0
  0
LINE
  5
16B
330
72
100
AcDbEntity
  8
0
 62
     7
100
AcDbLine
 10
-128.865765338669
 20
729.3149622818692
 30
0.0
 11
-128.865765338669
 21
643.3149622818692
 31
0.0
  0
LINE
  5
16C
330
72
100
AcDbEntity
  8
0
 62
     7
100
AcDbLine
 10
-129.4362229258824
 20
642.8015500443344
 30
0.0
 11
-138.2953150828263
 21
634.8283607507319
 31
0.0
  0
LINE
  5
16D
330
72
100
AcDbEntity
  8
0
 62
     7
100
AcDbLine
 10
-129.4362229258824
 20
729.828374519404
 30
0.0
 11
-138.2953150828263
 21
737.8015638130064
 31
0.0
  0
ARC
  5
16E
330
72
100
AcDbEntity
  8
0
 62
     7
100
AcDbCircle
 10
-109.8657734747025
 20
643.3149622818692
 30
0.0
 40
2.0
100
AcDbArc
 50
210.0000000000005
 51
269.9999999999984
  0
ARC
  5
16F
330
72
100
AcDbEntity
  8
0
 62
     7
100
AcDbCircle
 10
-113.3298750898404
 20
641.3149622818692
 30
0.0
 40
2.0
100
AcDbArc
 50
29.99999999999971
 51
90.0
  0
ARC
  5
170
330
72
100
AcDbEntity
  8
0
 62
     7
100
AcDbCircle
 10
-113.3298750898404
 20
731.3149622818692
 30
0.0
 40
2.0
100
AcDbArc
 50
270.0
 51
330.0000000000003
  0
ARC
  5
171
330
72
100
AcDbEntity
  8
0
 62
     7
100
AcDbCircle
 10
-128.0982928737162
 20
641.3149622818692
 30
0.0
 40
2.0
100
AcDbArc
 50
90.0
 51
131.9872351939063
  0
ARC
  5
172
330
72
100
AcDbEntity
  8
0
 62
     7
100
AcDbCircle
 10
-128.0982928737162
 20
731.3149622818692
 30
0.0
 40
2.0
100
AcDbArc
 50
228.0127648060937
 51
270.0
  0
ARC
  5
173
330
72
100
AcDbEntity
  8
0
 62
     7
100
AcDbCircle
 10
-139.6332451349926
 20
736.3149760505421
 30
0.0
 40
2.0
100
AcDbArc
 50
48.01276480609374
 51
90.0
  0
ARC
  5
174
330
72
100
AcDbEntity
  8
0
 62
     7
100
AcDbCircle
 10
-139.6332451349926
 20
636.3149485131962
 30
0.0
 40
2.0
100
AcDbArc
 50
270.0
 51
311.9872351939063
  0
LINE
  5
175
330
72
100
AcDbEntity
  8
0
 62
     2
100
AcDbLine
 10
-255.3656658883028
 20
651.8149622818692
 30
0.0
 11
-255.3656658883028
 21
720.8149622818692
 31
0.0
  0
LINE
  5
176
330
72
100
AcDbEntity
  8
0
 62
     2
100
AcDbLine
 10
-255.530964701544
 20
728.8149622818692
 30
0.0
 11
-252.8664902503369
 21
728.8149622818692
 31
0.0
  0
LINE
  5
177
330
72
100
AcDbEntity
  8
0
 62
     2
100
AcDbLine
 10
-260.530964701544
 20
723.8149622818692
 30
0.0
 11
-260.530964701544
 21
648.8149622818692
 31
0.0
  0
LINE
  5
178
330
72
100
AcDbEntity
  8
0
 62
     2
100
AcDbLine
 10
-255.530964701544
 20
643.8149622818692
 30
0.0
 11
-252.8664902503369
 21
643.8149622818692
 31
0.0
  0
ARC
  5
179
330
72
100
AcDbEntity
  8
0
 62
     2
100
AcDbCircle
 10
-250.3656658883028
 20
651.8149622818692
 30
0.0
 40
5.0
100
AcDbArc
 50
180.0
 51
239.9890915297666
  0
ARC
  5
17A
330
72
100
AcDbEntity
  8
0
 62
     2
100
AcDbCircle
 10
-250.3656658883028
 20
720.8149622818692
 30
0.0
 40
5.0
100
AcDbArc
 50
120.0109084702334
 51
180.0
  0
ARC
  5
17B
330
72
100
AcDbEntity
  8
0
 62
     2
100
AcDbCircle
 10
-255.530964701544
 20
723.8149622818692
 30
0.0
 40
5.0
100
AcDbArc
 50
90.0
 51
180.0
  0
ARC
  5
17C
330
72
100
AcDbEntity
  8
0
 62
     2
100
AcDbCircle
 10
-255.530964701544
 20
648.8149622818692
 30
0.0
 40
5.0
100
AcDbArc
 50
180.0
 51
270.0
  0
LINE
  5
17D
330
72
100
AcDbEntity
  8
0
 62
     7
100
AcDbLine
 10
84.13427773637704
 20
717.8149207889956
 30
0.0
 11
82.10486972892977
 21
640.3149544709404
 31
0.0
  0
LINE
  5
17E
330
72
100
AcDbEntity
  8
0
 62
     7
100
AcDbLine
 10
84.1343198661682
 20
717.814961343096
 30
0.0
 11
-67.86569086266735
 21
717.814961343096
 31
0.0
  0
LINE
  5
17F
330
72
100
AcDbEntity
  8
0
 62
     7
100
AcDbLine
 10
-67.86566346978151
 20
717.8149075864385
 30
0.0
 11
-65.83625546233424
 21
640.3149412683843
 31
0.0
  0
LINE
  5
180
330
72
100
AcDbEntity
  8
0
 62
     7
100
AcDbLine
 10
82.10487046376011
 20
640.3149789115641
 30
0.0
 11
-65.83631012480777
 21
640.3149789115641
 31
0.0
  0
LINE
  5
181
330
72
100
AcDbEntity
  8
0
 62
     7
100
AcDbLine
 10
65.63425938235673
 20
635.3149180254213
 30
0.0
 11
-17.3657076264733
 21
635.3149180254213
 31
0.0
  0
LINE
  5
182
330
72
100
AcDbEntity
  8
0
 62
     7
100
AcDbLine
 10
66.63428987013185
 20
640.3149789115641
 30
0.0
 11
66.63428987013185
 21
636.3149485131962
 31
0.0
  0
LINE
  5
183
330
72
100
AcDbEntity
  8
0
 62
     7
100
AcDbLine
 10
-18.36573811424819
 20
640.3149789115641
 30
0.0
 11
-18.36573811424819
 21
636.3149485131962
 31
0.0
  0
LINE
  5
184
330
72
100
AcDbEntity
  8
0
 62
     7
100
AcDbLine
 10
-18.36567568876239
 20
636.3148747243249
 30
0.0
 11
-17.36573933527438
 21
635.3149384551252
 31
0.0
  0
LINE
  5
185
330
72
100
AcDbEntity
  8
0
 62
     7
100
AcDbLine
 10
65.63427489379319
 20
635.3149338611192
 30
0.0
 11
66.63427590054766
 21
636.3149349521673
 31
0.0
  0
LINE
  5
186
330
72
100
AcDbEntity
  8
0
 62
     7
100
AcDbLine
 10
83.75462115236223
 20
732.3149248857617
 30
0.0
 11
84.13431709919701
 21
717.8149214449477
 31
0.0
  0
LINE
  5
187
330
72
100
AcDbEntity
  8
0
 62
     7
100
AcDbLine
 10
66.63429313860729
 20
736.314938837394
 30
0.0
 11
65.63429208970592
 21
737.3149398862961
 31
0.0
  0
LINE
  5
188
330
72
100
AcDbEntity
  8
0
 62
     7
100
AcDbLine
 10
65.63435093508861
 20
737.3149607619507
 30
0.0
 11
24.13432165430777
 21
737.3149607619507
 31
0.0
  0
LINE
  5
189
330
72
100
AcDbEntity
  8
0
 62
     7
100
AcDbLine
 10
83.7546049116645
 20
732.3149456521733
 30
0.0
 11
-67.48606746089507
 21
732.3149456521733
 31
0.0
  0
LINE
  5
18A
330
72
100
AcDbEntity
  8
0
 62
     7
100
AcDbLine
 10
24.13432165430777
 20
737.3149607619507
 30
0.0
 11
-17.3657076264733
 21
737.3149607619507
 31
0.0
  0
LINE
  5
18B
330
72
100
AcDbEntity
  8
0
 62
     7
100
AcDbLine
 10
66.63428987013185
 20
732.3149456521733
 30
0.0
 11
66.63428987013185
 21
736.3149760505421
 31
0.0
  0
LINE
  5
18C
330
72
100
AcDbEntity
  8
0
 62
     7
100
AcDbLine
 10
-18.36564656151654
 20
732.3149456521733
 30
0.0
 11
-18.36564656151654
 21
736.3149760505421
 31
0.0
  0
LINE
  5
18D
330
72
100
AcDbEntity
  8
0
 62
     7
100
AcDbLine
 10
-18.36570700387347
 20
736.3150278515359
 30
0.0
 11
-17.36570595497187
 21
737.315028900437
 31
0.0
  0
LINE
  5
18E
330
72
100
AcDbEntity
  8
0
 62
     7
100
AcDbLine
 10
-67.48602856782071
 20
732.3149844481395
 30
0.0
 11
-67.86572451465571
 21
717.8149810073273
 31
0.0
  0
LINE
  5
18F
330
72
100
AcDbEntity
  8
0
 62
     7
100
AcDbLine
 10
1.634322324859795
 20
633.3149486026032
 30
0.0
 11
1.634322324859795
 21
635.3149638017876
 31
0.0
  0
LINE
  5
190
330
72
100
AcDbEntity
  8
0
 62
     7
100
AcDbLine
 10
46.63432098375529
 20
633.3149486026032
 30
0.0
 11
46.63432098375529
 21
635.3149638017876
 31
0.0
  0
LINE
  5
191
330
72
100
AcDbEntity
  8
0
 62
     7
100
AcDbLine
 10
45.47961215586361
 20
631.314979179785
 30
0.0
 11
2.789031152751477
 21
631.314979179785
 31
0.0
  0
LINE
  5
192
330
72
100
AcDbEntity
  8
0
 62
     7
100
AcDbLine
 10
45.47961215586361
 20
741.3149453839533
 30
0.0
 11
2.789031152751477
 21
741.3149453839533
 31
0.0
  0
LINE
  5
193
330
72
100
AcDbEntity
  8
0
 62
     7
100
AcDbLine
 10
1.634322324859795
 20
737.3149607619507
 30
0.0
 11
1.634322324859795
 21
739.3149759611342
 31
0.0
  0
LINE
  5
194
330
72
100
AcDbEntity
  8
0
 62
     7
100
AcDbLine
 10
46.63432098375529
 20
737.3149607619507
 30
0.0
 11
46.63432098375529
 21
739.3149759611342
 31
0.0
  0
LINE
  5
195
330
72
100
AcDbEntity
  8
0
 62
     7
100
AcDbLine
 10
45.4795829866639
 20
631.3149732515376
 30
0.0
 11
46.63426894191593
 21
633.3149479569238
 31
0.0
  0
LINE
  5
196
330
72
100
AcDbEntity
  8
0
 62
     7
100
AcDbLine
 10
2.789036868490712
 20
631.3149135986132
 30
0.0
 11
1.634328025055311
 21
633.3149279474965
 31
0.0
  0
LINE
  5
197
330
72
100
AcDbEntity
  8
0
 62
     7
100
AcDbLine
 10
1.634322324859795
 20
635.3149638017876
 30
0.0
 11
46.63432098375529
 21
635.3149638017876
 31
0.0
  0
LINE
  5
198
330
72
100
AcDbEntity
  8
0
 62
     7
100
AcDbLine
 10
1.634322324859795
 20
737.3149607619507
 30
0.0
 11
46.63432098375529
 21
737.3149607619507
 31
0.0
  0
LINE
  5
199
330
72
100
AcDbEntity
  8
0
 62
     7
100
AcDbLine
 10
45.47964345052696
 20
741.3148995751799
 30
0.0
 11
46.63430651759609
 21
739.314964513288
 31
0.0
  0
LINE
  5
19A
330
72
100
AcDbEntity
  8
0
 62
     7
100
AcDbLine
 10
2.789041119666081
 20
741.3149482938543
 30
0.0
 11
1.634343720322477
 21
739.3149537667196
 31
0.0
  0
LINE
  5
19B
330
72
100
AcDbEntity
  8
0
  6
CENTER
 62
     9
100
AcDbLine
 10
102.5397467319472
 20
686.3149622818692
 30
0.0
 11
-273.6679396034563
 21
686.3149622818692
 31
0.0
  0
LINE
  5
19C
330
72
100
AcDbEntity
  8
0
  6
CENTER
 62
     9
100
AcDbLine
 10
24.13432165430777
 20
1225.11563470497
 30
0.0
 11
24.13432165430777
 21
610.7757348013738
 31
0.0
  0
LINE
  5
19D
330
72
100
AcDbEntity
  8
0
  6
CENTER
 62
     9
100
AcDbLine
 10
-54.86572939706906
 20
637.3605722613311
 30
0.0
 11
-54.86572939706906
 21
736.2697490011078
 31
0.0
  0
LINE
  5
19E
330
72
100
AcDbEntity
  8
0
  6
CENTER
 62
     9
100
AcDbLine
 10
71.1342897360214
 20
637.906043436481
 30
0.0
 11
71.1342897360214
 21
735.5449718010286
 31
0.0
  0
ENDBLK
  5
74
330
72
100
AcDbEntity
  8
0
100
AcDbBlockEnd
  0
BLOCK
  5
76
330
75
100
AcDbEntity
  8
0
100
AcDbBlockBegin
  2
GROUP_12
 70
     0
 71
     0
 10
0.0
 20
0.0
 30
0.0
  3
GROUP_12
  1

  0
LINE
  5
19F
330
75
100
AcDbEntity
  8
0
 62
     4
100
AcDbLine
 10
-670.2067196316179
 20
-1067.113035864263
 30
0.0
 11
-78.8377577516153
 21
-362.3543928247209
 31
0.0
  0
LINE
  5
1A0
330
75
100
AcDbEntity
  8
0
 62
     4
100
AcDbLine
 10
-794.3070696316179
 20
-962.9804758642633
 30
0.0
 11
18.23554137214796
 21
5.376431281032524
 31
0.0
  0
LINE
  5
1A1
330
75
100
AcDbEntity
  8
0
 62
     4
100
AcDbLine
 10
-78.84139229699071
 20
-362.3513430468333
 30
0.0
 11
-202.9446620688236
 21
-258.2175942203255
 31
0.0
  0
LINE
  5
1A2
330
75
100
AcDbEntity
  8
0
 62
     4
100
AcDbLine
 10
18.23450090380902
 20
5.375191291044075
 30
0.0
 11
172.5000000000027
 21
5.375191291044075
 31
0.0
  0
LINE
  5
1A3
330
75
100
AcDbEntity
  8
0
 62
     4
100
AcDbLine
 10
264.0838670112516
 20
-59.62480870897025
 30
0.0
 11
172.5000000000027
 21
5.375191291044075
 31
0.0
  0
LINE
  5
1A4
330
75
100
AcDbEntity
  8
0
 62
     4
100
AcDbLine
 10
-78.84139229699071
 20
-362.3513430468333
 30
0.0
 11
-57.49999999999972
 21
-404.6248087089514
 31
0.0
  0
LINE
  5
1A5
330
75
100
AcDbEntity
  8
0
 62
     4
100
AcDbLine
 10
264.0838670112516
 20
-59.62480870897025
 30
0.0
 11
272.5000000000005
 21
-404.6248087089514
 31
0.0
  0
LINE
  5
1A6
330
75
100
AcDbEntity
  8
0
 62
     4
100
AcDbLine
 10
-57.49999999999972
 20
-404.6248087089514
 30
0.0
 11
272.5000000000005
 21
-404.6248087089709
 31
0.0
  0
LINE
  5
1A7
330
75
100
AcDbEntity
  8
0
 62
     4
100
AcDbLine
 10
-1701.276399631618
 20
-1196.785325864263
 30
0.0
 11
-948.2763996316182
 21
-1196.784875864263
 31
0.0
  0
ARC
  5
1A8
330
75
100
AcDbEntity
  8
0
 62
     4
100
AcDbCircle
 10
-931.5255496316181
 20
-817.4875858642631
 30
0.0
 40
200.0
100
AcDbArc
 50
265.1956069999499
 51
313.3237859999408
  0
ARC
  5
1A9
330
75
100
AcDbEntity
  8
0
 62
     4
100
AcDbCircle
 10
-948.2763996316182
 20
-833.7848758642631
 30
0.0
 40
363.0
100
AcDbArc
 50
269.999999999949
 51
320.0000139999395
  0
LINE
  5
1AA
330
75
100
AcDbEntity
  8
0
 62
     4
100
AcDbLine
 10
-1701.276399631618
 20
-1196.785325864263
 30
0.0
 11
-1701.276399631618
 21
-1016.785325864263
 31
0.0
  0
LINE
  5
1AB
330
75
100
AcDbEntity
  8
0
 62
     4
100
AcDbLine
 10
-948.2763996316182
 20
-1016.784875864263
 30
0.0
 11
-1701.276399631618
 21
-1016.785325864263
 31
0.0
  0
LINE
  5
1AC
330
75
100
AcDbEntity
  8
0
  6
CENTER
 62
     2
100
AcDbLine
 10
-756.8590774709301
 20
-994.4030802902391
 30
0.0
 11
-164.4457813877399
 21
-288.3877902881623
 31
0.0
  0
LINE
  5
1AD
330
75
100
AcDbEntity
  8
0
  6
CENTER
 62
     2
100
AcDbLine
 10
-164.4457813877399
 20
-288.3877902881623
 30
0.0
 11
-2.42780514610331
 21
-165.7658785867616
 31
0.0
  0
LINE
  5
1AE
330
75
100
AcDbEntity
  8
0
  6
CENTER
 62
     2
100
AcDbLine
 10
-91.9515626104814
 20
-306.2261875087131
 30
0.0
 11
43.38841217795016
 21
-240.1943563206473
 31
0.0
  0
LINE
  5
1AF
330
75
100
AcDbEntity
  8
0
  6
CENTER
 62
     2
100
AcDbLine
 10
-705.5367324457354
 20
-1037.467581452687
 30
0.0
 11
-91.95156261048146
 21
-306.2261875087131
 31
0.0
  0
CIRCLE
  5
1B0
330
75
100
AcDbEntity
  8
0
  6
CENTER
 62
     2
100
AcDbCircle
 10
24.13432165430777
 20
-200.7308418120931
 30
0.0
 40
43.91000999156171
  0
LINE
  5
1B1
330
75
100
AcDbEntity
  8
0
  6
CENTER
 62
     2
100
AcDbLine
 10
-1421.447300530242
 20
-1083.670066122172
 30
0.0
 11
-1606.668042865979
 21
-1063.121391304272
 31
0.0
  0
ARC
  5
1B2
330
75
100
AcDbEntity
  8
0
  6
CENTER
 62
     2
100
AcDbCircle
 10
-948.2763764369254
 20
-833.784875864249
 30
0.0
 40
249.8775498848713
100
AcDbArc
 50
270.0
 51
319.999996580701
  0
ARC
  5
1B3
330
75
100
AcDbEntity
  8
0
  6
CENTER
 62
     2
100
AcDbCircle
 10
-948.2763764369254
 20
-833.784875864249
 30
0.0
 40
316.8740748638103
100
AcDbArc
 50
269.9999958060374
 51
320.0000055622131
  0
LINE
  5
1B4
330
75
100
AcDbEntity
  8
0
  6
CENTER
 62
     2
100
AcDbLine
 10
-948.2763764369254
 20
-1083.66242574912
 30
0.0
 11
-1421.516168989204
 21
-1083.66242574912
 31
0.0
  0
LINE
  5
1B5
330
75
100
AcDbEntity
  8
0
  6
CENTER
 62
     2
100
AcDbLine
 10
-948.2763996316182
 20
-1150.658950728059
 30
0.0
 11
-1611.276399631618
 21
-1150.658950728059
 31
0.0
  0
CIRCLE
  5
1B6
330
75
100
AcDbEntity
  8
0
  6
CENTER
 62
     2
100
AcDbCircle
 10
-1611.276399631618
 20
-1106.784875864263
 30
0.0
 40
43.90599999999995
  0
LINE
  5
1B7
330
75
100
AcDbEntity
  8
0
  6
CENTER
 62
     9
100
AcDbLine
 10
-117.7878008795569
 20
-81.64404113803084
 30
0.0
 11
103.8175865686603
 21
-267.5930400127277
 31
0.0
  0
LINE
  5
1B8
330
75
100
AcDbEntity
  8
0
  6
CENTER
 62
     9
100
AcDbLine
 10
-16.216650909289
 20
-248.8192583438108
 30
0.0
 11
90.99851032701122
 21
-121.0452047598819
 31
0.0
  0
LINE
  5
1B9
330
75
100
AcDbEntity
  8
0
  6
CENTER
 62
     9
100
AcDbLine
 10
-948.2763996316182
 20
-833.7848758642631
 30
0.0
 11
-602.7906315583155
 21
-1123.681856431571
 31
0.0
  0
LINE
  5
1C5
330
75
100
AcDbEntity
  8
0
 62
     7
100
AcDbLine
 10
-1681.076399631618
 20
-1014.484875864263
 30
0.0
 11
-1681.076399631618
 21
-1016.784875864263
 31
0.0
  0
LINE
  5
1C6
330
75
100
AcDbEntity
  8
0
 62
     7
100
AcDbLine
 10
-1681.076399631618
 20
-1014.484875864263
 30
0.0
 11
-948.2763996316182
 21
-1014.484875864263
 31
0.0
  0
ARC
  5
1C7
330
75
100
AcDbEntity
  8
0
 62
     7
100
AcDbCircle
 10
-958.2763996316182
 20
-909.772575864263
 30
0.0
 40
10.0
100
AcDbArc
 50
0.0
 51
90.01888899998163
  0
ARC
  5
1C8
330
75
100
AcDbEntity
  8
0
 62
     7
100
AcDbCircle
 10
-1686.276399631618
 20
-904.7805058642632
 30
0.0
 40
5.0
100
AcDbArc
 50
90.01888899998163
 51
179.9999999999674
  0
LINE
  5
1C9
330
75
100
AcDbEntity
  8
0
 62
     7
100
AcDbLine
 10
-1691.276399631618
 20
-929.7805058642632
 30
0.0
 11
-1691.276399631618
 21
-904.7805058642632
 31
0.0
  0
LINE
  5
1CA
330
75
100
AcDbEntity
  8
0
 62
     7
100
AcDbLine
 10
-1691.276399631618
 20
-929.7805058642632
 30
0.0
 11
-948.2763996316182
 21
-929.7805058642632
 31
0.0
  0
LINE
  5
1CB
330
75
100
AcDbEntity
  8
0
 62
     7
100
AcDbLine
 10
-1611.276399631618
 20
-1014.484875864263
 30
0.0
 11
-1691.276399631618
 21
-929.7805058642632
 31
0.0
  0
LINE
  5
1CC
330
75
100
AcDbEntity
  8
0
 62
     7
100
AcDbLine
 10
-1686.278039631618
 20
-899.7805058642632
 30
0.0
 11
-958.2796896316179
 21
-899.772575864263
 31
0.0
  0
LINE
  5
1CD
330
75
100
AcDbEntity
  8
0
 62
     7
100
AcDbLine
 10
-948.2763996316182
 20
-909.772575864263
 30
0.0
 11
-948.2763996316182
 21
-1016.784875864263
 31
0.0
  0
LINE
  5
1CE
330
75
100
AcDbEntity
  8
0
 62
     4
100
AcDbLine
 10
-1461.276399631618
 20
-1196.785235864263
 30
0.0
 11
-1461.276399631618
 21
-1224.784515864263
 31
0.0
  0
LINE
  5
1CF
330
75
100
AcDbEntity
  8
0
 62
     4
100
AcDbLine
 10
-1561.276399631618
 20
-1196.785295864263
 30
0.0
 11
-1561.276399631618
 21
-1224.784795864263
 31
0.0
  0
LINE
  5
1D0
330
75
100
AcDbEntity
  8
0
 62
     4
100
AcDbLine
 10
-1471.276359631618
 20
-1234.784515864263
 30
0.0
 11
-1551.276359631618
 21
-1234.784795864263
 31
0.0
  0
ARC
  5
1D1
330
75
100
AcDbEntity
  8
0
 62
     4
100
AcDbCircle
 10
-1471.276399631618
 20
-1224.784515864263
 30
0.0
 40
10.0
100
AcDbArc
 50
270.0001989999487
 51
359.9999999999316
  0
ARC
  5
1D2
330
75
100
AcDbEntity
  8
0
 62
     4
100
AcDbCircle
 10
-1551.276399631618
 20
-1224.784795864263
 30
0.0
 40
10.0
100
AcDbArc
 50
179.9999999999658
 51
270.0001989999487
  0
ENDBLK
  5
77
330
75
100
AcDbEntity
  8
0
100
AcDbBlockEnd
  0
BLOCK
  5
79
330
78
100
AcDbEntity
  8
0
100
AcDbBlockBegin
  2
GROUP_13
 70
     0
 71
     0
 10
0.0
 20
0.0
 30
0.0
  3
GROUP_13
  1

  0
LINE
  5
1D3
330
78
100
AcDbEntity
  8
0
 62
    32
100
AcDbLine
 10
-498.1763996316178
 20
-757.0775258642632
 30
0.0
 11
-298.1763996316178
 21
-757.0775258642632
 31
0.0
  0
LINE
  5
1D4
330
78
100
AcDbEntity
  8
0
 62
    32
100
AcDbLine
 10
-498.1763996316178
 20
-757.0775258642632
 30
0.0
 11
-498.1763996316178
 21
-801.0775258642632
 31
0.0
  0
LINE
  5
1D5
330
78
100
AcDbEntity
  8
0
 62
    32
100
AcDbLine
 10
-498.1763996316178
 20
-801.0775258642632
 30
0.0
 11
-298.1763996316178
 21
-801.0775258642632
 31
0.0
  0
LINE
  5
1D6
330
78
100
AcDbEntity
  8
0
 62
    32
100
AcDbLine
 10
-298.1763996316178
 20
-493.9457158642631
 30
0.0
 11
-298.1763996316178
 21
-941.0775258642632
 31
0.0
  0
LINE
  5
1D7
330
78
100
AcDbEntity
  8
0
 62
    32
100
AcDbLine
 10
-240.6763996316178
 20
-941.0775258642632
 30
0.0
 11
-305.6763996316178
 21
-941.0775258642632
 31
0.0
  0
LINE
  5
1D8
330
78
100
AcDbEntity
  8
0
 62
    32
100
AcDbLine
 10
-305.6763996316178
 20
-941.0775258642632
 30
0.0
 11
-305.6763996316178
 21
-957.0775258642632
 31
0.0
  0
LINE
  5
1D9
330
78
100
AcDbEntity
  8
0
 62
    32
100
AcDbLine
 10
-305.6763996316178
 20
-957.0775258642632
 30
0.0
 11
-240.6763996316178
 21
-957.0775258642632
 31
0.0
  0
LINE
  5
1DA
330
78
100
AcDbEntity
  8
0
 62
    32
100
AcDbLine
 10
-240.6763996316178
 20
-957.0775258642632
 30
0.0
 11
-240.6763996316178
 21
-941.0775258642632
 31
0.0
  0
LINE
  5
1DB
330
78
100
AcDbEntity
  8
0
 62
    32
100
AcDbLine
 10
-248.1763996316178
 20
-941.0775258642632
 30
0.0
 11
-248.1763996316178
 21
-493.9457158642631
 31
0.0
  0
LINE
  5
1DC
330
78
100
AcDbEntity
  8
0
 62
    32
100
AcDbLine
 10
-248.1763996316178
 20
-493.9457158642631
 30
0.0
 11
-298.1763996316178
 21
-493.9457158642631
 31
0.0
  0
LINE
  5
1DD
330
78
100
AcDbEntity
  8
0
  6
CENTER
 62
     9
100
AcDbLine
 10
-273.1763996316178
 20
-463.9457158642631
 30
0.0
 11
-273.1763996316178
 21
-1284.784515867714
 31
0.0
  0
LINE
  5
1DE
330
78
100
AcDbEntity
  8
0
  6
CENTER
 62
     9
100
AcDbLine
 10
-328.1763996316178
 20
-593.9457158642631
 30
0.0
 11
-218.1763996316178
 21
-593.9457158642631
 31
0.0
  0
ENDBLK
  5
7A
330
78
100
AcDbEntity
  8
0
100
AcDbBlockEnd
  0
BLOCK
  5
7C
330
7B
100
AcDbEntity
  8
0
100
AcDbBlockBegin
  2
GROUP_14
 70
     0
 71
     0
 10
0.0
 20
0.0
 30
0.0
  3
GROUP_14
  1

  0
LINE
  5
1DF
330
7B
100
AcDbEntity
  8
0
  6
CENTER
 62
     9
100
AcDbLine
 10
-55.32529079514819
 20
-209.7319401825939
 30
0.0
 11
-265.2747578553949
 21
-209.7319401825939
 31
0.0
  0
LINE
  5
1E0
330
7B
100
AcDbEntity
  8
0
  6
CENTER
 62
     9
100
AcDbLine
 10
-54.8656607325201
 20
-163.7308581795096
 30
0.0
 11
-54.8656607325201
 21
-143.7308435167674
 31
0.0
  0
LINE
  5
1E1
330
7B
100
AcDbEntity
  8
0
  6
CENTER
 62
     9
100
AcDbLine
 10
-64.86564517570827
 20
-153.7308737363214
 30
0.0
 11
-44.86567628933199
 21
-153.7308737363214
 31
0.0
  0
LINE
  5
1E2
330
7B
100
AcDbEntity
  8
0
  6
CENTER
 62
     9
100
AcDbLine
 10
71.13433551238745
 20
-163.7308581795096
 30
0.0
 11
71.13433551238745
 21
-143.7308435167674
 31
0.0
  0
LINE
  5
1E3
330
7B
100
AcDbEntity
  8
0
  6
CENTER
 62
     9
100
AcDbLine
 10
-64.86564517570827
 20
-279.7308699812288
 30
0.0
 11
-44.86567628933199
 21
-279.7308699812288
 31
0.0
  0
LINE
  5
1E4
330
7B
100
AcDbEntity
  8
0
  6
CENTER
 62
     9
100
AcDbLine
 10
-54.8656607325201
 20
-289.7308773126001
 30
0.0
 11
-54.8656607325201
 21
-269.730862649858
 31
0.0
  0
LINE
  5
1E5
330
7B
100
AcDbEntity
  8
0
  6
CENTER
 62
     9
100
AcDbLine
 10
-38.49623097639824
 20
-200.7308418180351
 30
0.0
 11
99.13431986616865
 21
-200.7308418180351
 31
0.0
  0
LINE
  5
1E6
330
7B
100
AcDbEntity
  8
0
  6
CENTER
 62
     9
100
AcDbLine
 10
61.13435106919928
 20
-153.7308737363214
 30
0.0
 11
81.13431995557562
 21
-153.7308737363214
 31
0.0
  0
LINE
  5
1E7
330
7B
100
AcDbEntity
  8
0
  6
CENTER
 62
     9
100
AcDbLine
 10
71.13433551238745
 20
-163.7308581795096
 30
0.0
 11
71.13433551238745
 21
-143.7308435167674
 31
0.0
  0
LINE
  5
1E8
330
7B
100
AcDbEntity
  8
0
  6
CENTER
 62
     9
100
AcDbLine
 10
61.13430529283346
 20
-279.730892869412
 30
0.0
 11
81.13431995557562
 21
-279.730892869412
 31
0.0
  0
LINE
  5
1E9
330
7B
100
AcDbEntity
  8
0
  6
CENTER
 62
     9
100
AcDbLine
 10
71.13433551238745
 20
-289.7308773126001
 30
0.0
 11
71.13433551238745
 21
-269.730862649858
 31
0.0
  0
LINE
  5
1EA
330
7B
100
AcDbEntity
  8
0
  6
CENTER
 62
     9
100
AcDbLine
 10
24.13432165430777
 20
-125.7308436061744
 30
0.0
 11
24.13432165430777
 21
-307.7308772231932
 31
0.0
  0
LINE
  5
1EB
330
7B
100
AcDbEntity
  8
0
  6
CENTER
 62
     9
100
AcDbLine
 10
61.13430529283346
 20
-153.7308737363214
 30
0.0
 11
81.13431995557562
 21
-153.7308737363214
 31
0.0
  0
LINE
  5
1EC
330
7B
100
AcDbEntity
  8
0
  6
CENTER
 62
     9
100
AcDbLine
 10
-243.7475781197642
 20
-291.7305159899311
 30
0.0
 11
-267.5600781197642
 21
-291.7305159899311
 31
0.0
  0
LINE
  5
1ED
330
7B
100
AcDbEntity
  8
0
  6
CENTER
 62
     9
100
AcDbLine
 10
-217.8657665009593
 20
-261.7306567456185
 30
0.0
 11
-217.8657665009595
 21
-316.9585406419633
 31
0.0
  0
LINE
  5
1EE
330
7B
100
AcDbEntity
  8
0
  6
CENTER
 62
     9
100
AcDbLine
 10
-250.1886603759414
 20
-314.5096299737465
 30
0.0
 11
-254.8071420083298
 21
-302.7848630864132
 31
0.0
  0
LINE
  5
1EF
330
7B
100
AcDbEntity
  8
0
 62
     7
100
AcDbLine
 10
-67.8656450863013
 20
-153.7308737363214
 30
0.0
 11
-67.8656450863013
 21
-279.7427031717944
 31
0.0
  0
LINE
  5
1F0
330
7B
100
AcDbEntity
  8
0
 62
     7
100
AcDbLine
 10
-54.8656607325201
 20
-292.7308772231932
 30
0.0
 11
71.13433551238745
 21
-292.7308772231932
 31
0.0
  0
LINE
  5
1F1
330
7B
100
AcDbEntity
  8
0
 62
     7
100
AcDbLine
 10
-54.8656607325201
 20
-140.7308436061744
 30
0.0
 11
71.13433551238745
 21
-140.7308436061744
 31
0.0
  0
LINE
  5
1F2
330
7B
100
AcDbEntity
  8
0
 62
     7
100
AcDbLine
 10
84.13431986616865
 20
-153.7308737363214
 30
0.0
 11
84.13431986616865
 21
-279.730892869412
 31
0.0
  0
LINE
  5
1F3
330
7B
100
AcDbEntity
  8
0
 62
     7
100
AcDbLine
 10
-77.86566180710059
 20
-254.7309130990197
 30
0.0
 11
-106.8658135307066
 21
-254.7308858677679
 31
0.0
  0
LINE
  5
1F4
330
7B
100
AcDbEntity
  8
0
 62
     7
100
AcDbLine
 10
-77.85701711629048
 20
-164.7308471247579
 30
0.0
 11
-106.8657290203052
 21
-164.730819885468
 31
0.0
  0
ARC
  5
1F5
330
7B
100
AcDbEntity
  8
0
 62
     7
100
AcDbCircle
 10
-77.86567530585529
 20
-154.7308126713647
 30
0.0
 40
9.999999463558213
100
AcDbArc
 50
269.999944675244
 51
0.0000086514215241
  0
ARC
  5
1F6
330
7B
100
AcDbEntity
  8
0
 62
     7
100
AcDbCircle
 10
-77.86567530585529
 20
-264.7308704282636
 30
0.0
 40
9.999999463558213
100
AcDbArc
 50
0.0000086514211983
 51
89.9999496842005
  0
CIRCLE
  5
1F7
330
7B
100
AcDbEntity
  8
0
 62
     7
100
AcDbCircle
 10
24.13432165430777
 20
-200.7308418180351
 30
0.0
 40
42.49996821582412
  0
ARC
  5
1F8
330
7B
100
AcDbEntity
  8
0
 62
     7
100
AcDbCircle
 10
-77.86567530585529
 20
-154.7308584477305
 30
0.0
 40
9.999999463558213
100
AcDbArc
 50
269.999944675244
 51
0.0000086514215241
  0
ARC
  5
1F9
330
7B
100
AcDbEntity
  8
0
 62
     7
100
AcDbCircle
 10
-77.86567530585529
 20
-264.7308933164468
 30
0.0
 40
9.999999463558213
100
AcDbArc
 50
359.9999949910431
 51
89.99994968420049
  0
ARC
  5
1FA
330
7B
100
AcDbEntity
  8
0
 62
     7
100
AcDbCircle
 10
-54.8656607325201
 20
-153.7308737363214
 30
0.0
 40
13.00000008940696
100
AcDbArc
 50
90.00000432571393
 51
180.0000050089569
  0
ARC
  5
1FB
330
7B
100
AcDbEntity
  8
0
 62
     7
100
AcDbCircle
 10
-54.8656607325201
 20
-279.730892869412
 30
0.0
 40
13.00000008940696
100
AcDbArc
 50
179.9999949910431
 51
269.999995674286
  0
ARC
  5
1FC
330
7B
100
AcDbEntity
  8
0
 62
     7
100
AcDbCircle
 10
71.13433551238745
 20
-153.7308737363214
 30
0.0
 40
13.00000008940696
100
AcDbArc
 50
359.9999949910431
 51
90.00000432571397
  0
ARC
  5
1FD
330
7B
100
AcDbEntity
  8
0
 62
     7
100
AcDbCircle
 10
71.13433551238745
 20
-279.730892869412
 30
0.0
 40
13.00000008940696
100
AcDbArc
 50
269.999999316757
 51
0.0000086514213535
  0
ARC
  5
1FE
330
7B
100
AcDbEntity
  8
0
 62
     7
100
AcDbCircle
 10
-54.8656607325201
 20
-153.7308737363214
 30
0.0
 40
13.00000008940696
100
AcDbArc
 50
90.00001115590307
 51
180.0000043257107
  0
POINT
  5
1FF
330
7B
100
AcDbEntity
  8
0
  6
CONTINUOUS
 62
     7
100
AcDbPoint
 10
-143.8657648916339
 20
-209.7319401825939
 30
0.0
  0
LINE
  5
200
330
7B
100
AcDbEntity
  8
0
 62
     7
100
AcDbLine
 10
-128.8657653386687
 20
-166.7319567228824
 30
0.0
 11
-128.8657653386687
 21
-252.7319694186713
 31
0.0
  0
LINE
  5
201
330
7B
100
AcDbEntity
  8
0
 62
     7
100
AcDbLine
 10
-138.8657726700398
 20
-158.7108387978678
 30
0.0
 11
-138.8657726700398
 21
-260.5652898028961
 31
0.0
  0
LINE
  5
202
330
7B
100
AcDbEntity
  8
0
 62
     7
100
AcDbLine
 10
-143.8657648916339
 20
-157.7319569911033
 30
0.0
 11
-143.8657648916339
 21
-261.7319691504504
 31
0.0
  0
LINE
  5
203
330
7B
100
AcDbEntity
  8
0
 62
     7
100
AcDbLine
 10
-106.8657583649255
 20
-254.7319617296726
 30
0.0
 11
-109.8657811637015
 21
-254.7319617296726
 31
0.0
  0
LINE
  5
204
330
7B
100
AcDbEntity
  8
0
 62
     7
100
AcDbLine
 10
-106.8657583649255
 20
-164.7319415236984
 30
0.0
 11
-109.8657811637015
 21
-164.7319415236984
 31
0.0
  0
LINE
  5
205
330
7B
100
AcDbEntity
  8
0
 62
     7
100
AcDbLine
 10
-113.3298847591936
 20
-252.7319694186713
 30
0.0
 11
-128.0983016774589
 21
-252.7319694186713
 31
0.0
  0
LINE
  5
206
330
7B
100
AcDbEntity
  8
0
 62
     7
100
AcDbLine
 10
-113.3298847591936
 20
-166.7319567228824
 30
0.0
 11
-128.0983016774589
 21
-166.7319567228824
 31
0.0
  0
LINE
  5
207
330
7B
100
AcDbEntity
  8
0
 62
     7
100
AcDbLine
 10
-139.6332592194326
 20
-157.7319569911033
 30
0.0
 11
-143.8657648916339
 21
-157.7319569911033
 31
0.0
  0
LINE
  5
208
330
7B
100
AcDbEntity
  8
0
 62
     7
100
AcDbLine
 10
-139.6332592194326
 20
-261.7319691504504
 30
0.0
 11
-143.8657648916339
 21
-261.7319691504504
 31
0.0
  0
LINE
  5
209
330
7B
100
AcDbEntity
  8
0
 62
     7
100
AcDbLine
 10
-129.4361959257714
 20
-253.2453473598375
 30
0.0
 11
-138.2952962617282
 21
-261.2185380884448
 31
0.0
  0
LINE
  5
20A
330
7B
100
AcDbEntity
  8
0
 62
     7
100
AcDbLine
 10
-129.4362498878369
 20
-166.2185841023447
 30
0.0
 11
-138.2953332111417
 21
-158.2454086851258
 31
0.0
  0
ARC
  5
20B
330
7B
100
AcDbEntity
  8
0
 62
     7
100
AcDbCircle
 10
-109.8657811637015
 20
-252.7319694186713
 30
0.0
 40
2.0
100
AcDbArc
 50
209.9998904354362
 51
270.0000025044818
  0
ARC
  5
20C
330
7B
100
AcDbEntity
  8
0
 62
     7
100
AcDbCircle
 10
-113.3298847591936
 20
-254.7319617296726
 30
0.0
 40
2.0
100
AcDbArc
 50
30.00000265605915
 51
89.99999749552154
  0
ARC
  5
20D
330
7B
100
AcDbEntity
  8
0
 62
     7
100
AcDbCircle
 10
-109.8657811637015
 20
-166.7319567228824
 30
0.0
 40
2.0
100
AcDbArc
 50
89.99999749551829
 51
149.9998256392886
  0
ARC
  5
20E
330
7B
100
AcDbEntity
  8
0
 62
     7
100
AcDbCircle
 10
-113.3298847591936
 20
-164.7319415236984
 30
0.0
 40
2.0
100
AcDbArc
 50
270.0000025044785
 51
329.9999973439408
  0
ARC
  5
20F
330
7B
100
AcDbEntity
  8
0
 62
     7
100
AcDbCircle
 10
-128.0983016774589
 20
-164.7319415236984
 30
0.0
 40
2.0
100
AcDbArc
 50
228.0127874498491
 51
270.0000025044785
  0
ARC
  5
210
330
7B
100
AcDbEntity
  8
0
 62
     7
100
AcDbCircle
 10
-128.0983016774589
 20
-254.7319617296726
 30
0.0
 40
2.0
100
AcDbArc
 50
89.99999749552154
 51
131.9872125501509
  0
ARC
  5
211
330
7B
100
AcDbEntity
  8
0
 62
     7
100
AcDbCircle
 10
-139.6332592194326
 20
-159.7319264139214
 30
0.0
 40
2.0
100
AcDbArc
 50
48.01278244089053
 51
89.99999749551829
  0
ARC
  5
212
330
7B
100
AcDbEntity
  8
0
 62
     7
100
AcDbCircle
 10
-139.6332592194326
 20
-259.7319539512664
 30
0.0
 40
2.0
100
AcDbArc
 50
270.0000025044818
 51
311.9872175591095
  0
POINT
  5
213
330
7B
100
AcDbEntity
  8
0
  6
CONTINUOUS
 62
     7
100
AcDbPoint
 10
-252.8664902503368
 20
-209.7319401825939
 30
0.0
  0
LINE
  5
214
330
7B
100
AcDbEntity
  8
0
 62
     7
100
AcDbLine
 10
-241.8657657857035
 20
-266.7306567456185
 30
0.0
 11
-241.8657657857035
 21
-150.2319572146207
 31
0.0
  0
LINE
  5
215
330
7B
100
AcDbEntity
  8
0
 62
     7
100
AcDbLine
 10
-252.8664902503368
 20
-254.7319388414894
 30
0.0
 11
-252.8664902503368
 21
-164.7320330764301
 31
0.0
  0
LINE
  5
216
330
7B
100
AcDbEntity
  8
0
 62
     7
100
AcDbLine
 10
-248.8662424142312
 20
-254.7319388414894
 30
0.0
 11
-252.8662384803248
 21
-254.7319388414894
 31
0.0
  0
LINE
  5
217
330
7B
100
AcDbEntity
  8
0
 62
     7
100
AcDbLine
 10
-248.8664827401518
 20
-262.4819462399159
 30
0.0
 11
-248.8664827401518
 21
-156.981957013455
 31
0.0
  0
LINE
  5
218
330
7B
100
AcDbEntity
  8
0
 62
     7
100
AcDbLine
 10
-252.8664902503368
 20
-164.7320330764301
 30
0.0
 11
-248.8664827401518
 21
-164.7320330764301
 31
0.0
  0
LINE
  5
219
330
7B
100
AcDbEntity
  8
0
 62
     7
100
AcDbLine
 10
-241.8657543416122
 20
-156.981957013455
 30
0.0
 11
-248.8664827401518
 21
-156.981957013455
 31
0.0
  0
LINE
  5
21A
330
7B
100
AcDbEntity
  8
0
 62
     7
100
AcDbLine
 10
-248.8659906442192
 20
-262.4819462399159
 30
0.0
 11
-241.8652851338625
 21
-262.4819462399159
 31
0.0
  0
LINE
  5
21B
330
7B
100
AcDbEntity
  8
0
 62
     7
100
AcDbLine
 10
-241.8657543416122
 20
-150.2319572146207
 30
0.0
 11
-143.865742003451
 21
-150.2319572146207
 31
0.0
  0
LINE
  5
21C
330
7B
100
AcDbEntity
  8
0
 62
     7
100
AcDbLine
 10
-143.8657648916339
 20
-266.7306567456185
 30
0.0
 11
-143.8657648916339
 21
-150.2319572146207
 31
0.0
  0
LINE
  5
21D
330
7B
100
AcDbEntity
  8
0
 62
     7
100
AcDbLine
 10
-241.8657657857035
 20
-266.7306567456185
 30
0.0
 11
-143.8657648916339
 21
-266.7306567456185
 31
0.0
  0
CIRCLE
  5
21E
330
7B
100
AcDbEntity
  8
0
 62
     7
100
AcDbCircle
 10
24.13432165430777
 20
-200.7308418180351
 30
0.0
 40
22.49999827891596
  0
POINT
  5
21F
330
7B
100
AcDbEntity
  8
0
  6
CONTINUOUS
 62
     2
100
AcDbPoint
 10
-255.3657269234751
 20
-291.7305770250873
 30
0.0
  0
LINE
  5
220
330
7B
100
AcDbEntity
  8
0
 62
     2
100
AcDbLine
 10
-176.7932018990611
 20
-269.730651411684
 30
0.0
 11
-250.3657421822642
 21
-269.730651411684
 31
0.0
  0
LINE
  5
221
330
7B
100
AcDbEntity
  8
0
 62
     2
100
AcDbLine
 10
-255.3657421822642
 20
-309.4118361803608
 30
0.0
 11
-255.3657421822642
 21
-274.7306456896381
 31
0.0
  0
LINE
  5
222
330
7B
100
AcDbEntity
  8
0
 62
     2
100
AcDbLine
 10
-170.8689590565204
 20
-276.1278509012368
 30
0.0
 11
-172.1411885112672
 21
-272.8981082495989
 31
0.0
  0
LINE
  5
223
330
7B
100
AcDbEntity
  8
0
 62
     2
100
AcDbLine
 10
-259.4314665586641
 20
-314.2377039723501
 30
0.0
 11
-164.5292121786287
 21
-276.8549292922003
 31
0.0
  0
LINE
  5
224
330
7B
100
AcDbEntity
  8
0
 62
     2
100
AcDbLine
 10
-168.2508080217799
 20
-295.0379522516237
 30
0.0
 11
-168.2507749071851
 21
-278.3210199549035
 31
0.0
  0
LINE
  5
225
330
7B
100
AcDbEntity
  8
0
 62
     2
100
AcDbLine
 10
-164.5291979815724
 20
-276.8549236998638
 30
0.0
 11
-165.6387846999411
 21
-274.0380573247935
 31
0.0
  0
LINE
  5
226
330
7B
100
AcDbEntity
  8
0
 62
     2
100
AcDbLine
 10
-260.5309647015439
 20
-311.4464490872119
 30
0.0
 11
-165.6287103215086
 21
-274.063674407063
 31
0.0
  0
LINE
  5
227
330
7B
100
AcDbEntity
  8
0
 62
     2
100
AcDbLine
 10
-240.8656506295298
 20
-266.7306567456185
 30
0.0
 11
-240.8656506295298
 21
-269.7306504580097
 31
0.0
  0
LINE
  5
228
330
7B
100
AcDbEntity
  8
0
 62
     2
100
AcDbLine
 10
-194.8658823723887
 20
-266.7306567456185
 30
0.0
 11
-194.8658823723887
 21
-269.7306504580097
 31
0.0
  0
ARC
  5
229
330
7B
100
AcDbEntity
  8
0
 62
     2
100
AcDbCircle
 10
-250.3656658883189
 20
-274.730651411684
 30
0.0
 40
5.0
100
AcDbArc
 50
90.00009061369796
 51
179.9998540615587
  0
ARC
  5
22A
330
7B
100
AcDbEntity
  8
0
 62
     2
100
AcDbCircle
 10
-176.7932018990611
 20
-274.7306399675922
 30
0.0
 40
5.0
100
AcDbArc
 50
21.49994220024395
 51
89.99985474478871
  0
ARC
  5
22B
330
7B
100
AcDbEntity
  8
0
 62
     2
100
AcDbCircle
 10
-183.2507672066783
 20
-295.0379958483295
 30
0.0
 40
15.0
100
AcDbArc
 50
273.1387336052466
 51
359.9997634478477
  0
LINE
  5
22C
330
7B
100
AcDbEntity
  8
0
 62
     2
100
AcDbLine
 10
-259.4314523616075
 20
-314.2376983800127
 30
0.0
 11
-260.5309505044874
 21
-311.4464434948754
 31
0.0
  0
LINE
  5
22D
330
7B
100
AcDbEntity
  8
0
 62
     2
100
AcDbLine
 10
-182.4295770629191
 20
-310.0154311172187
 30
0.0
 11
-253.061156384112
 21
-313.8884461536331
 31
0.0
  0
ARC
  5
22E
330
7B
100
AcDbEntity
  8
0
 62
     2
100
AcDbCircle
 10
-253.2254681344126
 20
-310.8929915758686
 30
0.0
 40
3.0
100
AcDbArc
 50
236.0772746757873
 51
273.1386789637353
  0
ARC
  5
22F
330
7B
100
AcDbEntity
  8
0
 62
     2
100
AcDbCircle
 10
-256.0158123726939
 20
-315.0419326159076
 30
0.0
 40
2.0
100
AcDbArc
 50
56.07725577903656
 51
111.4992138744742
  0
ENDBLK
  5
7D
330
7B
100
AcDbEntity
  8
0
100
AcDbBlockEnd
  0
BLOCK
  5
7F
330
7E
100
AcDbEntity
  8
0
100
AcDbBlockBegin
  2
GROUP_15
 70
     0
 71
     0
 10
0.0
 20
0.0
 30
0.0
  3
GROUP_15
  1

  0
LINE
  5
231
330
7E
100
AcDbEntity
  8
0
 62
     7
100
AcDbLine
 10
28.13430621670545
 20
-188.8881146863137
 30
0.0
 11
28.13430621670545
 21
-184.9308547313808
 31
0.0
  0
LINE
  5
232
330
7E
100
AcDbEntity
  8
0
 62
     7
100
AcDbLine
 10
20.13433709191008
 20
-188.8881146863137
 30
0.0
 11
20.13433709191008
 21
-184.9308547313808
 31
0.0
  0
LINE
  5
233
330
7E
100
AcDbEntity
  8
0
 62
     7
100
AcDbLine
 10
28.13430621670545
 20
-184.9308547313808
 30
0.0
 11
20.13433709191008
 21
-184.9308547313808
 31
0.0
  0
ARC
  5
234
330
7E
100
AcDbEntity
  8
0
 62
     7
100
AcDbCircle
 10
24.13432165430777
 20
-200.7308418180351
 30
0.0
 40
12.49999932199719
100
AcDbArc
 50
108.6629261393462
 51
71.33707249416312
  0
ENDBLK
  5
80
330
7E
100
AcDbEntity
  8
0
100
AcDbBlockEnd
  0
BLOCK
  5
82
330
81
100
AcDbEntity
  8
0
100
AcDbBlockBegin
  2
GROUP_16
 70
     0
 71
     0
 10
0.0
 20
0.0
 30
0.0
  3
GROUP_16
  1

  0
LINE
  5
235
330
81
100
AcDbEntity
  8
0
  6
CENTER
 62
     9
100
AcDbLine
 10
-294.4811038379873
 20
-331.5312379967375
 30
0.0
 11
-339.4762365160451
 21
-385.1543490150659
 31
0.0
  0
LINE
  5
236
330
81
100
AcDbEntity
  8
0
  6
CENTER
 62
     9
100
AcDbLine
 10
-343.7902256861805
 20
-335.8452271668728
 30
0.0
 11
-276.3783146917104
 21
-392.4105368192884
 31
0.0
  0
LINE
  5
237
330
81
100
AcDbEntity
  8
0
 62
     2
100
AcDbLine
 10
-333.0483604191797
 20
-377.4939045838762
 30
0.0
 11
-300.1084493650637
 21
-405.1337718003977
 31
0.0
  0
LINE
  5
238
330
81
100
AcDbEntity
  8
0
 62
     2
100
AcDbLine
 10
-326.9418781271576
 20
-370.2164823742457
 30
0.0
 11
-294.0019670730415
 21
-397.8563495907672
 31
0.0
  0
LINE
  5
239
330
81
100
AcDbEntity
  8
0
 62
     2
100
AcDbLine
 10
-307.0165176784099
 20
-346.4682190884944
 30
0.0
 11
-274.075551212117
 21
-374.108971900984
 31
0.0
  0
LINE
  5
23A
330
81
100
AcDbEntity
  8
0
 62
     2
100
AcDbLine
 10
-300.9089799348528
 20
-339.1916824279272
 30
0.0
 11
-267.9690688807366
 21
-366.8315496444486
 31
0.0
  0
ARC
  5
23B
330
81
100
AcDbEntity
  8
0
 62
     2
100
AcDbCircle
 10
-316.9786701770162
 20
-358.3427935059019
 30
0.0
 40
15.5
100
AcDbArc
 50
49.99490721485542
 51
229.9999999999999
  0
ARC
  5
23C
330
81
100
AcDbEntity
  8
0
 62
     2
100
AcDbCircle
 10
-316.9786701770162
 20
-358.3427935059019
 30
0.0
 40
25.0
100
AcDbArc
 50
50.0
 51
230.0
  0
LINE
  5
23D
330
81
100
AcDbEntity
  8
0
 62
     2
100
AcDbLine
 10
-300.1084493650637
 20
-405.1337718003977
 30
0.0
 11
-294.0019670730415
 21
-397.8563495907672
 31
0.0
  0
LINE
  5
23E
330
81
100
AcDbEntity
  8
0
 62
     2
100
AcDbLine
 10
-274.075551212117
 20
-374.108971900984
 30
0.0
 11
-267.9690688807366
 21
-366.8315496444486
 31
0.0
  0
ENDBLK
  5
83
330
81
100
AcDbEntity
  8
0
100
AcDbBlockEnd
  0
BLOCK
  5
85
330
84
100
AcDbEntity
  8
0
100
AcDbBlockBegin
  2
GROUP_17
 70
     0
 71
     0
 10
0.0
 20
0.0
 30
0.0
  3
GROUP_17
  1

  0
ARC
  5
23F
330
84
100
AcDbEntity
  8
0
 62
     4
100
AcDbCircle
 10
-1093.276399631295
 20
-1111.277515864263
 30
0.0
 40
25.0
100
AcDbArc
 50
179.9999999999661
 51
269.9999999999492
  0
ARC
  5
240
330
84
100
AcDbEntity
  8
0
 62
     4
100
AcDbCircle
 10
-1093.276399631295
 20
-1091.277515864263
 30
0.0
 40
25.0
100
AcDbArc
 50
89.99999999998306
 51
179.9999999999661
  0
ARC
  5
241
330
84
100
AcDbEntity
  8
0
 62
     4
100
AcDbCircle
 10
-1003.276399631295
 20
-1091.277515864263
 30
0.0
 40
25.0
100
AcDbArc
 50
0.0
 51
89.99999999998306
  0
ARC
  5
242
330
84
100
AcDbEntity
  8
0
 62
     4
100
AcDbCircle
 10
-1003.276399631295
 20
-1111.277515864263
 30
0.0
 40
25.0
100
AcDbArc
 50
269.9999999999492
 51
359.9999999999322
  0
LINE
  5
243
330
84
100
AcDbEntity
  8
0
 62
     4
100
AcDbLine
 10
-1003.276399631295
 20
-1136.277515864263
 30
0.0
 11
-1093.276399631295
 21
-1136.277515864263
 31
0.0
  0
LINE
  5
244
330
84
100
AcDbEntity
  8
0
 62
     4
100
AcDbLine
 10
-978.2763996312954
 20
-1111.277515864263
 30
0.0
 11
-978.2763996312954
 21
-1091.277515864263
 31
0.0
  0
LINE
  5
245
330
84
100
AcDbEntity
  8
0
 62
     4
100
AcDbLine
 10
-1003.276399631295
 20
-1066.277515864263
 30
0.0
 11
-1093.276399631295
 21
-1066.277515864263
 31
0.0
  0
LINE
  5
246
330
84
100
AcDbEntity
  8
0
 62
     4
100
AcDbLine
 10
-1118.276399631295
 20
-1111.277515864263
 30
0.0
 11
-1118.276399631295
 21
-1091.277515864263
 31
0.0
  0
ENDBLK
  5
86
330
84
100
AcDbEntity
  8
0
100
AcDbBlockEnd
  0
BLOCK
  5
88
330
87
100
AcDbEntity
  8
0
100
AcDbBlockBegin
  2
GROUP_18
 70
     0
 71
     0
 10
0.0
 20
0.0
 30
0.0
  3
GROUP_18
  1

  0
LINE
  5
247
330
87
100
AcDbEntity
  8
0
  6
CENTER
 62
     9
100
AcDbLine
 10
-898.2763996316182
 20
-833.7848758642631
 30
0.0
 11
-998.2763996316182
 21
-833.7848758642631
 31
0.0
  0
LINE
  5
248
330
87
100
AcDbEntity
  8
0
  6
CENTER
 62
     9
100
AcDbLine
 10
-948.2763996316182
 20
-783.7848758642631
 30
0.0
 11
-948.2763996316182
 21
-1284.784515867714
 31
0.0
  0
ENDBLK
  5
89
330
87
100
AcDbEntity
  8
0
100
AcDbBlockEnd
  0
BLOCK
  5
8B
330
8A
100
AcDbEntity
  8
0
100
AcDbBlockBegin
  2
GROUP_19
 70
     0
 71
     0
 10
0.0
 20
0.0
 30
0.0
  3
GROUP_19
  1

  0
LINE
  5
249
330
8A
100
AcDbEntity
  8
0
  6
CENTER
 62
     9
100
AcDbLine
 10
-1486.276399631618
 20
-1106.784875864263
 30
0.0
 11
-1736.276399631618
 21
-1106.784875864263
 31
0.0
  0
LINE
  5
24A
330
8A
100
AcDbEntity
  8
0
  6
CENTER
 62
     9
100
AcDbLine
 10
-1611.276399631618
 20
-981.7848758642631
 30
0.0
 11
-1611.276399631618
 21
-1284.784515867714
 31
0.0
  0
ENDBLK
  5
8C
330
8A
100
AcDbEntity
  8
0
100
AcDbBlockEnd
  0
BLOCK
  5
8E
330
8D
100
AcDbEntity
  8
0
100
AcDbBlockBegin
  2
GROUP_20
 70
     0
 71
     0
 10
0.0
 20
0.0
 30
0.0
  3
GROUP_20
  1

  0
LINE
  5
24B
330
8D
100
AcDbEntity
  8
0
 62
     2
100
AcDbLine
 10
-299.1013566316177
 20
-1144.784515864203
 30
0.0
 11
-281.6795158551261
 21
-1200.233585970102
 31
0.0
  0
LINE
  5
24C
330
8D
100
AcDbEntity
  8
0
 62
     2
100
AcDbLine
 10
-264.6732846316178
 20
-1200.233589864203
 30
0.0
 11
-247.2514426316176
 21
-1144.784515864203
 31
0.0
  0
ARC
  5
24D
330
8D
100
AcDbEntity
  8
0
 62
     2
100
AcDbCircle
 10
-273.1763996316178
 20
-1197.284515864203
 30
0.0
 40
9.000000120038962
100
AcDbArc
 50
199.1277110605103
 51
340.8722889394898
  0
LINE
  5
24E
330
8D
100
AcDbEntity
  8
0
 62
     2
100
AcDbLine
 10
-318.1763996316176
 20
-1144.784515864203
 30
0.0
 11
-228.1763996316176
 21
-1144.784515864203
 31
0.0
  0
LINE
  5
24F
330
8D
100
AcDbEntity
  8
0
 62
     2
100
AcDbLine
 10
-288.1763996316176
 20
-888.7845158642028
 30
0.0
 11
-258.1763996316176
 21
-888.7845158642028
 31
0.0
  0
LINE
  5
250
330
8D
100
AcDbEntity
  8
0
 62
     2
100
AcDbLine
 10
-228.1763996316176
 20
-1138.784515864203
 30
0.0
 11
-228.1763996316176
 21
-1144.784515864203
 31
0.0
  0
LINE
  5
251
330
8D
100
AcDbEntity
  8
0
 62
     2
100
AcDbLine
 10
-318.1763996316176
 20
-1138.784515864203
 30
0.0
 11
-318.1763996316176
 21
-1144.784515864203
 31
0.0
  0
LINE
  5
252
330
8D
100
AcDbEntity
  8
0
 62
     2
100
AcDbLine
 10
-288.1763996316176
 20
-888.7845158642028
 30
0.0
 11
-288.1763996316176
 21
-1138.784515864203
 31
0.0
  0
LINE
  5
253
330
8D
100
AcDbEntity
  8
0
 62
     2
100
AcDbLine
 10
-258.1763996316176
 20
-888.7845158642028
 30
0.0
 11
-258.1763996316176
 21
-1138.784515864203
 31
0.0
  0
LINE
  5
254
330
8D
100
AcDbEntity
  8
0
 62
     2
100
AcDbLine
 10
-228.1763996316176
 20
-1138.784515864203
 30
0.0
 11
-318.1763996316176
 21
-1138.784515864203
 31
0.0
  0
CIRCLE
  5
255
330
8D
100
AcDbEntity
  8
0
 62
     2
100
AcDbCircle
 10
-273.1763996316178
 20
-1197.284515864203
 30
0.0
 40
6.0
  0
ARC
  5
256
330
8D
100
AcDbEntity
  8
0
 62
     2
100
AcDbCircle
 10
-273.1763996316178
 20
-1197.284515864203
 30
0.0
 40
37.5
100
AcDbArc
 50
121.322890868472
 51
58.67710913152791
  0
LINE
  5
257
330
8D
100
AcDbEntity
  8
0
  6
CENTER
 62
     9
100
AcDbLine
 10
-318.1763996316176
 20
-1197.284515864203
 30
0.0
 11
-228.1763996316176
 21
-1197.284515864203
 31
0.0
  0
ENDBLK
  5
8F
330
8D
100
AcDbEntity
  8
0
100
AcDbBlockEnd
  0
BLOCK
  5
91
330
90
100
AcDbEntity
  8
0
100
AcDbBlockBegin
  2
GROUP_21
 70
     0
 71
     0
 10
0.0
 20
0.0
 30
0.0
  3
GROUP_21
  1

  0
LINE
  5
258
330
90
100
AcDbEntity
  8
0
 62
     6
100
AcDbLine
 10
-1149.276376436925
 20
-1196.784875864249
 30
0.0
 11
-1117.276376436925
 21
-1196.784875864249
 31
0.0
  0
LINE
  5
259
330
90
100
AcDbEntity
  8
0
 62
     6
100
AcDbLine
 10
-1117.276376436925
 20
-1202.784875864249
 30
0.0
 11
-1149.276376436925
 21
-1202.784875864249
 31
0.0
  0
LINE
  5
25A
330
90
100
AcDbEntity
  8
0
 62
     6
100
AcDbLine
 10
-1149.276376436925
 20
-1202.784875864249
 30
0.0
 11
-1149.276376436925
 21
-1196.784875864249
 31
0.0
  0
LINE
  5
25B
330
90
100
AcDbEntity
  8
0
 62
     6
100
AcDbLine
 10
-1117.276376436925
 20
-1196.784875864249
 30
0.0
 11
-1117.276376436925
 21
-1202.784875864249
 31
0.0
  0
ENDBLK
  5
92
330
90
100
AcDbEntity
  8
0
100
AcDbBlockEnd
  0
BLOCK
  5
94
330
93
100
AcDbEntity
  8
0
100
AcDbBlockBegin
  2
GROUP_22
 70
     0
 71
     0
 10
0.0
 20
0.0
 30
0.0
  3
GROUP_22
  1

  0
LINE
  5
25C
330
93
100
AcDbEntity
  8
0
 62
     7
100
AcDbLine
 10
-1113.276376436925
 20
-1227.784875864249
 30
0.0
 11
-948.2763764369254
 21
-1227.784875864249
 31
0.0
  0
LINE
  5
25D
330
93
100
AcDbEntity
  8
0
 62
     7
100
AcDbLine
 10
-1148.276376436925
 20
-1205.084875864249
 30
0.0
 11
-1113.276376436925
 21
-1205.084875864249
 31
0.0
  0
LINE
  5
25E
330
93
100
AcDbEntity
  8
0
 62
     7
100
AcDbLine
 10
-1148.276376436925
 20
-1202.784875864249
 30
0.0
 11
-948.2763764369254
 21
-1202.784875864249
 31
0.0
  0
LINE
  5
25F
330
93
100
AcDbEntity
  8
0
 62
     7
100
AcDbLine
 10
-1148.276376436925
 20
-1202.784875864249
 30
0.0
 11
-1148.276376436925
 21
-1205.084875864249
 31
0.0
  0
LINE
  5
260
330
93
100
AcDbEntity
  8
0
 62
     7
100
AcDbLine
 10
-1113.276376436925
 20
-1202.784875864249
 30
0.0
 11
-1113.276376436925
 21
-1227.784875864249
 31
0.0
  0
ARC
  5
261
330
93
100
AcDbEntity
  8
0
 62
     7
100
AcDbCircle
 10
-948.2763764369263
 20
-833.7848758642481
 30
0.0
 40
369.0000000000009
100
AcDbArc
 50
270.0000000000002
 51
320.0000000000002
  0
ARC
  5
262
330
93
100
AcDbEntity
  8
0
 62
     7
100
AcDbCircle
 10
-948.2763764369254
 20
-833.784875864249
 30
0.0
 40
394.0
100
AcDbArc
 50
270.0
 51
320.0000000000002
  0
LINE
  5
263
330
93
100
AcDbEntity
  8
0
 62
     7
100
AcDbLine
 10
-659.1781008291566
 20
-1063.313059407391
 30
0.0
 11
-657.4161986099828
 21
-1064.79147090967
 31
0.0
  0
LINE
  5
264
330
93
100
AcDbEntity
  8
0
 62
     7
100
AcDbLine
 10
-638.6088973191872
 20
-1038.799637227583
 30
0.0
 11
-636.8469951000136
 21
-1040.278048729863
 31
0.0
  0
LINE
  5
265
330
93
100
AcDbEntity
  8
0
 62
     7
100
AcDbLine
 10
-657.416198609983
 20
-1064.79147090967
 30
0.0
 11
-636.8469951000136
 21
-1040.278048729862
 31
0.0
  0
LINE
  5
266
330
93
100
AcDbEntity
  8
0
 62
     7
100
AcDbLine
 10
-646.4548658480471
 20
-1087.043194080744
 30
0.0
 11
-485.7579634264122
 21
-895.5320833009996
 31
0.0
  0
LINE
  5
267
330
93
100
AcDbEntity
  8
0
 62
     7
100
AcDbLine
 10
-665.6059769260219
 20
-1070.973503838581
 30
0.0
 11
-482.411508165358
 21
-852.6508375496719
 31
0.0
  0
LINE
  5
268
330
93
100
AcDbEntity
  8
0
 62
     7
100
AcDbLine
 10
-504.909074504387
 20
-879.4623930588359
 30
0.0
 11
-485.7579634264129
 21
-895.5320833009992
 31
0.0
  0
LINE
  5
269
330
93
100
AcDbEntity
  8
0
 62
     7
100
AcDbLine
 10
-480.6496059461846
 20
-854.1292490519509
 30
0.0
 11
-503.1471722852133
 21
-880.9408045611149
 31
0.0
  0
LINE
  5
26A
330
93
100
AcDbEntity
  8
0
 62
     7
100
AcDbLine
 10
-482.411508165358
 20
-852.6508375496719
 30
0.0
 11
-480.6496059461846
 21
-854.1292490519509
 31
0.0
  0
LINE
  5
26B
330
93
100
AcDbEntity
  8
0
  6
CENTER
 62
     9
100
AcDbLine
 10
-1133.276376436925
 20
-1187.367484280089
 30
0.0
 11
-1133.276376436925
 21
-1213.398048000142
 31
0.0
  0
LINE
  5
26C
330
93
100
AcDbEntity
  8
0
  6
CENTER
 62
     9
100
AcDbLine
 10
-660.703906224607
 20
-1041.146240033504
 30
0.0
 11
-640.7633375356056
 21
-1057.87836386591
 31
0.0
  0
LINE
  5
26D
330
93
100
AcDbEntity
  8
0
  6
CENTER
 62
     9
100
AcDbLine
 10
-503.8637294610912
 20
-854.2313959124726
 30
0.0
 11
-483.9231607720901
 21
-870.9635197448788
 31
0.0
  0
ENDBLK
  5
95
330
93
100
AcDbEntity
  8
0
100
AcDbBlockEnd
  0
BLOCK
  5
97
330
96
100
AcDbEntity
  8
0
100
AcDbBlockBegin
  2
GROUP_23
 70
     0
 71
     0
 10
0.0
 20
0.0
 30
0.0
  3
GROUP_23
  1

  0
LINE
  5
26E
330
96
100
AcDbEntity
  8
0
 62
     6
100
AcDbLine
 10
-663.7743674878705
 20
-1059.456333749272
 30
0.0
 11
-643.2051639779013
 21
-1034.942911569464
 31
0.0
  0
LINE
  5
26F
330
96
100
AcDbEntity
  8
0
 62
     6
100
AcDbLine
 10
-638.6088973191872
 20
-1038.799637227583
 30
0.0
 11
-659.1781008291566
 21
-1063.313059407391
 31
0.0
  0
LINE
  5
270
330
96
100
AcDbEntity
  8
0
 62
     6
100
AcDbLine
 10
-659.1781008291566
 20
-1063.313059407391
 30
0.0
 11
-663.7743674878705
 21
-1059.456333749272
 31
0.0
  0
LINE
  5
271
330
96
100
AcDbEntity
  8
0
 62
     6
100
AcDbLine
 10
-643.2051639779013
 20
-1034.942911569464
 30
0.0
 11
-638.6088973191872
 21
-1038.799637227583
 31
0.0
  0
ENDBLK
  5
98
330
96
100
AcDbEntity
  8
0
100
AcDbBlockEnd
  0
BLOCK
  5
9A
330
99
100
AcDbEntity
  8
0
100
AcDbBlockBegin
  2
GROUP_24
 70
     0
 71
     0
 10
0.0
 20
0.0
 30
0.0
  3
GROUP_24
  1

  0
LINE
  5
272
330
99
100
AcDbEntity
  8
0
 62
     6
100
AcDbLine
 10
-506.9341907243547
 20
-872.5414896282409
 30
0.0
 11
-486.3649872143855
 21
-848.0280674484334
 31
0.0
  0
LINE
  5
273
330
99
100
AcDbEntity
  8
0
 62
     6
100
AcDbLine
 10
-481.7687205556717
 20
-851.8847931065529
 30
0.0
 11
-502.3379240656408
 21
-876.39821528636
 31
0.0
  0
LINE
  5
274
330
99
100
AcDbEntity
  8
0
 62
     6
100
AcDbLine
 10
-502.3379240656408
 20
-876.39821528636
 30
0.0
 11
-506.9341907243547
 21
-872.5414896282409
 31
0.0
  0
LINE
  5
275
330
99
100
AcDbEntity
  8
0
 62
     6
100
AcDbLine
 10
-486.3649872143855
 20
-848.0280674484334
 30
0.0
 11
-481.7687205556717
 21
-851.8847931065529
 31
0.0
  0
ENDBLK
  5
9B
330
99
100
AcDbEntity
  8
0
100
AcDbBlockEnd
  0
BLOCK
  5
9D
330
9C
100
AcDbEntity
  8
0
100
AcDbBlockBegin
  2
GROUP_25
 70
     0
 71
     0
 10
0.0
 20
0.0
 30
0.0
  3
GROUP_25
  1

  0
LINE
  5
276
330
9C
100
AcDbEntity
  8
0
  6
CENTER
 62
     9
100
AcDbLine
 10
-1483.776399631618
 20
-293.4675587227715
 30
0.0
 11
-1483.776399631618
 21
-681.4666187262218
 31
0.0
  0
LINE
  5
277
330
9C
100
AcDbEntity
  8
0
  6
CENTER
 62
     9
100
AcDbLine
 10
-1660.776399631618
 20
-503.4669787227714
 30
0.0
 11
-1306.776399631618
 21
-503.4669787227714
 31
0.0
  0
LINE
  5
278
330
9C
100
AcDbEntity
  8
0
 62
     7
100
AcDbLine
 10
-1266.276399631618
 20
-293.4675587227715
 30
0.0
 11
-1266.276399631618
 21
-323.4675587227715
 31
0.0
  0
LINE
  5
279
330
9C
100
AcDbEntity
  8
0
 62
     7
100
AcDbLine
 10
-1266.276399631618
 20
-323.4675587227715
 30
0.0
 11
-1701.276399631618
 21
-323.4675587227715
 31
0.0
  0
LINE
  5
27A
330
9C
100
AcDbEntity
  8
0
 62
     7
100
AcDbLine
 10
-1701.276399631618
 20
-293.4675587227715
 30
0.0
 11
-1701.276399631618
 21
-323.4675587227715
 31
0.0
  0
LINE
  5
27B
330
9C
100
AcDbEntity
  8
0
 62
     7
100
AcDbLine
 10
-1701.276399631618
 20
-323.4675587227715
 30
0.0
 11
-1588.776399631618
 21
-411.1674287227712
 31
0.0
  0
LINE
  5
27C
330
9C
100
AcDbEntity
  8
0
 62
     7
100
AcDbLine
 10
-1378.776399631618
 20
-411.1674287227712
 30
0.0
 11
-1266.276399631618
 21
-323.4675587227715
 31
0.0
  0
LINE
  5
27D
330
9C
100
AcDbEntity
  8
0
 62
     7
100
AcDbLine
 10
-1633.076399631618
 20
-443.4674287227714
 30
0.0
 11
-1630.776399631618
 21
-443.4674287227714
 31
0.0
  0
LINE
  5
27E
330
9C
100
AcDbEntity
  8
0
 62
     7
100
AcDbLine
 10
-1633.076399631618
 20
-411.1674287227712
 30
0.0
 11
-1633.076399631618
 21
-443.4674287227714
 31
0.0
  0
LINE
  5
27F
330
9C
100
AcDbEntity
  8
0
 62
     7
100
AcDbLine
 10
-1588.776399631618
 20
-411.1674287227712
 30
0.0
 11
-1633.076399631618
 21
-411.1674287227712
 31
0.0
  0
LINE
  5
280
330
9C
100
AcDbEntity
  8
0
 62
     7
100
AcDbLine
 10
-1334.476399631619
 20
-411.1674287227712
 30
0.0
 11
-1334.476399631619
 21
-443.4674287227714
 31
0.0
  0
LINE
  5
281
330
9C
100
AcDbEntity
  8
0
 62
     7
100
AcDbLine
 10
-1378.776399631619
 20
-411.1674287227712
 30
0.0
 11
-1334.476399631619
 21
-411.1674287227712
 31
0.0
  0
LINE
  5
282
330
9C
100
AcDbEntity
  8
0
 62
     7
100
AcDbLine
 10
-1334.476399631619
 20
-443.4674287227714
 30
0.0
 11
-1336.776399631618
 21
-443.4674287227714
 31
0.0
  0
ENDBLK
  5
9E
330
9C
100
AcDbEntity
  8
0
100
AcDbBlockEnd
  0
BLOCK
  5
A0
330
9F
100
AcDbEntity
  8
0
100
AcDbBlockBegin
  2
GROUP_26
 70
     0
 71
     0
 10
0.0
 20
0.0
 30
0.0
  3
GROUP_26
  1

  0
LINE
  5
284
330
9F
100
AcDbEntity
  8
0
 62
     4
100
AcDbLine
 10
-1630.776399631618
 20
-413.4674287227714
 30
0.0
 11
-1630.776399631618
 21
-593.4674287227714
 31
0.0
  0
LINE
  5
285
330
9F
100
AcDbEntity
  8
0
 62
     4
100
AcDbLine
 10
-1630.776399631618
 20
-593.4674287227714
 30
0.0
 11
-1336.776399631618
 21
-593.4674287227714
 31
0.0
  0
LINE
  5
286
330
9F
100
AcDbEntity
  8
0
 62
     4
100
AcDbLine
 10
-1336.776399631618
 20
-413.4674287227714
 30
0.0
 11
-1336.776399631618
 21
-593.4674287227714
 31
0.0
  0
LINE
  5
287
330
9F
100
AcDbEntity
  8
0
 62
     4
100
AcDbLine
 10
-1336.776399631618
 20
-413.4674287227714
 30
0.0
 11
-1630.776399631618
 21
-413.4674287227714
 31
0.0
  0
LINE
  5
288
330
9F
100
AcDbEntity
  8
0
 62
     4
100
AcDbLine
 10
-1606.776399631618
 20
-631.4675587227715
 30
0.0
 11
-1597.776399631618
 21
-631.4675587227715
 31
0.0
  0
LINE
  5
289
330
9F
100
AcDbEntity
  8
0
 62
     4
100
AcDbLine
 10
-1597.776399631618
 20
-593.4674287227714
 30
0.0
 11
-1597.776399631618
 21
-631.4675587227715
 31
0.0
  0
LINE
  5
28A
330
9F
100
AcDbEntity
  8
0
 62
     4
100
AcDbLine
 10
-1606.776399631618
 20
-593.4674287227714
 30
0.0
 11
-1606.776399631618
 21
-631.4675587227715
 31
0.0
  0
LINE
  5
28B
330
9F
100
AcDbEntity
  8
0
 62
     4
100
AcDbLine
 10
-1360.776399631618
 20
-593.4674287227714
 30
0.0
 11
-1360.776399631618
 21
-631.4675587227715
 31
0.0
  0
LINE
  5
28C
330
9F
100
AcDbEntity
  8
0
 62
     4
100
AcDbLine
 10
-1369.776399631618
 20
-593.4674287227714
 30
0.0
 11
-1369.776399631618
 21
-631.4675587227715
 31
0.0
  0
LINE
  5
28D
330
9F
100
AcDbEntity
  8
0
 62
     4
100
AcDbLine
 10
-1360.776399631618
 20
-631.4675587227715
 30
0.0
 11
-1369.776399631618
 21
-631.4675587227715
 31
0.0
  0
ENDBLK
  5
A1
330
9F
100
AcDbEntity
  8
0
100
AcDbBlockEnd
  0
BLOCK
  5
A3
330
A2
100
AcDbEntity
  8
0
100
AcDbBlockBegin
  2
GROUP_27
 70
     0
 71
     0
 10
0.0
 20
0.0
 30
0.0
  3
GROUP_27
  1

  0
LINE
  5
28E
330
A2
100
AcDbEntity
  8
0
  6
CENTER
 62
     9
100
AcDbLine
 10
1321.250000000001
 20
55.3048780487818
 30
0.0
 11
1321.250000000001
 21
-1284.784515867713
 31
0.0
  0
LINE
  5
28F
330
A2
100
AcDbEntity
  8
0
 62
     7
100
AcDbLine
 10
1174.250000000001
 20
-112.1519637490821
 30
0.0
 11
1129.250000000001
 21
-112.1519637490821
 31
0.0
  0
ENDBLK
  5
A4
330
A2
100
AcDbEntity
  8
0
100
AcDbBlockEnd
  0
BLOCK
  5
A6
330
A5
100
AcDbEntity
  8
0
100
AcDbBlockBegin
  2
GROUP_28
 70
     0
 71
     0
 10
0.0
 20
0.0
 30
0.0
  3
GROUP_28
  1

  0
LINE
  5
298
330
A5
100
AcDbEntity
  8
0
 62
     7
100
AcDbLine
 10
1174.250000000001
 20
-41.44532670076865
 30
0.0
 11
1129.250000000001
 21
-41.44532670076865
 31
0.0
  0
LINE
  5
299
330
A5
100
AcDbEntity
  8
0
 62
     7
100
AcDbLine
 10
1129.250000000001
 20
-41.44532670076865
 30
0.0
 11
1129.250000000001
 21
-299.5747541518979
 31
0.0
  0
LINE
  5
29A
330
A5
100
AcDbEntity
  8
0
 62
     7
100
AcDbLine
 10
1129.250000000001
 20
-299.5747541518979
 30
0.0
 11
1174.250000000001
 21
-299.5747541518979
 31
0.0
  0
ENDBLK
  5
A7
330
A5
100
AcDbEntity
  8
0
100
AcDbBlockEnd
  0
BLOCK
  5
A9
330
A8
100
AcDbEntity
  8
0
100
AcDbBlockBegin
  2
GROUP_29
 70
     0
 71
     0
 10
0.0
 20
0.0
 30
0.0
  3
GROUP_29
  1

  0
LINE
  5
29B
330
A8
100
AcDbEntity
  8
0
 62
     7
100
AcDbLine
 10
1468.250000000001
 20
-41.45177808044332
 30
0.0
 11
1578.250000000001
 21
-41.45177808044332
 31
0.0
  0
LINE
  5
29C
330
A8
100
AcDbEntity
  8
0
 62
     7
100
AcDbLine
 10
1578.250000000001
 20
-41.45177808044332
 30
0.0
 11
1578.250000000001
 21
-335.808906566763
 31
0.0
  0
LINE
  5
29D
330
A8
100
AcDbEntity
  8
0
 62
     7
100
AcDbLine
 10
1469.850000000001
 20
-144.2846274684828
 30
0.0
 11
1578.250000000001
 21
-144.2846274684828
 31
0.0
  0
LINE
  5
29E
330
A8
100
AcDbEntity
  8
0
 62
     7
100
AcDbLine
 10
1578.250000000001
 20
-335.808906566763
 30
0.0
 11
1468.250000000001
 21
-335.808906566763
 31
0.0
  0
ENDBLK
  5
AA
330
A8
100
AcDbEntity
  8
0
100
AcDbBlockEnd
  0
BLOCK
  5
AC
330
AB
100
AcDbEntity
  8
0
100
AcDbBlockBegin
  2
GROUP_30
 70
     0
 71
     0
 10
0.0
 20
0.0
 30
0.0
  3
GROUP_30
  1

  0
LINE
  5
2A0
330
AB
100
AcDbEntity
  8
0
  6
CENTER
 62
     9
100
AcDbLine
 10
1246.250000000001
 20
-927.4918410404891
 30
0.0
 11
1246.250000000001
 21
-970.2448307931907
 31
0.0
  0
LINE
  5
2A1
330
AB
100
AcDbEntity
  8
0
  6
CENTER
 62
     9
100
AcDbLine
 10
1396.250000000001
 20
-927.4918410404891
 30
0.0
 11
1396.250000000001
 21
-970.2448307931907
 31
0.0
  0
ENDBLK
  5
AD
330
AB
100
AcDbEntity
  8
0
100
AcDbBlockEnd
  0
BLOCK
  5
AF
330
AE
100
AcDbEntity
  8
0
100
AcDbBlockBegin
  2
GROUP_31
 70
     0
 71
     0
 10
0.0
 20
0.0
 30
0.0
  3
GROUP_31
  1

  0
LINE
  5
2A2
330
AE
100
AcDbEntity
  8
0
 62
    32
100
AcDbLine
 10
1091.250000000001
 20
-941.0775258642632
 30
0.0
 11
1091.250000000001
 21
-957.0775258642632
 31
0.0
  0
LINE
  5
2A3
330
AE
100
AcDbEntity
  8
0
 62
    32
100
AcDbLine
 10
1551.250000000001
 20
-941.0775258642632
 30
0.0
 11
1091.250000000001
 21
-941.0775258642632
 31
0.0
  0
LINE
  5
2A4
330
AE
100
AcDbEntity
  8
0
 62
    32
100
AcDbLine
 10
1551.250000000001
 20
-957.0775258642632
 30
0.0
 11
1551.250000000001
 21
-941.0775258642632
 31
0.0
  0
LINE
  5
2A5
330
AE
100
AcDbEntity
  8
0
 62
    32
100
AcDbLine
 10
1154.250000000001
 20
-493.9457158642631
 30
0.0
 11
1174.250000000001
 21
-493.9457158642631
 31
0.0
  0
LINE
  5
2A6
330
AE
100
AcDbEntity
  8
0
 62
    32
100
AcDbLine
 10
1091.250000000001
 20
-941.0775258642632
 30
0.0
 11
1091.250000000001
 21
-957.0775258642632
 31
0.0
  0
LINE
  5
2A7
330
AE
100
AcDbEntity
  8
0
 62
    32
100
AcDbLine
 10
1091.250000000001
 20
-957.0775258642632
 30
0.0
 11
1551.250000000001
 21
-957.0775258642632
 31
0.0
  0
LINE
  5
2A8
330
AE
100
AcDbEntity
  8
0
 62
    32
100
AcDbLine
 10
1174.250000000001
 20
-493.9457158642631
 30
0.0
 11
1174.250000000001
 21
-941.0775258642632
 31
0.0
  0
LINE
  5
2A9
330
AE
100
AcDbEntity
  8
0
 62
    32
100
AcDbLine
 10
1468.250000000002
 20
-941.0775258642632
 30
0.0
 11
1468.250000000002
 21
-493.9457158642631
 31
0.0
  0
LINE
  5
2AA
330
AE
100
AcDbEntity
  8
0
 62
    32
100
AcDbLine
 10
1468.250000000002
 20
-493.9457158642631
 30
0.0
 11
1488.250000000002
 21
-493.9457158642631
 31
0.0
  0
LINE
  5
2AB
330
AE
100
AcDbEntity
  8
0
 62
    32
100
AcDbLine
 10
1488.250000000002
 20
-493.9457158642631
 30
0.0
 11
1488.250000000002
 21
-941.0775258642632
 31
0.0
  0
LINE
  5
2AC
330
AE
100
AcDbEntity
  8
0
 62
    32
100
AcDbLine
 10
1154.250000000001
 20
-493.9457158642631
 30
0.0
 11
1154.250000000001
 21
-941.0775258642632
 31
0.0
  0
ENDBLK
  5
B0
330
AE
100
AcDbEntity
  8
0
100
AcDbBlockEnd
  0
BLOCK
  5
B2
330
B1
100
AcDbEntity
  8
0
100
AcDbBlockBegin
  2
GROUP_32
 70
     0
 71
     0
 10
0.0
 20
0.0
 30
0.0
  3
GROUP_32
  1

  0
LINE
  5
2AD
330
B1
100
AcDbEntity
  8
0
 62
     7
100
AcDbLine
 10
1092.049975136822
 20
-140.7308857444043
 30
0.0
 11
1014.550008818767
 21
-142.7602937518516
 31
0.0
  0
LINE
  5
2AE
330
B1
100
AcDbEntity
  8
0
 62
     7
100
AcDbLine
 10
1092.050015690923
 20
-140.7308436146134
 30
0.0
 11
1092.050015690923
 21
-292.730854343449
 31
0.0
  0
LINE
  5
2AF
330
B1
100
AcDbEntity
  8
0
 62
     7
100
AcDbLine
 10
1092.049961934265
 20
-292.7308269505631
 30
0.0
 11
1014.549995616211
 21
-290.7014189431159
 31
0.0
  0
LINE
  5
2B0
330
B1
100
AcDbEntity
  8
0
 62
     7
100
AcDbLine
 10
1014.550033259391
 20
-142.7602930170212
 30
0.0
 11
1014.550033259391
 21
-290.7014736055892
 31
0.0
  0
LINE
  5
2B1
330
B1
100
AcDbEntity
  8
0
 62
     7
100
AcDbLine
 10
1009.549972373248
 20
-159.2309040984248
 30
0.0
 11
1009.549972373248
 21
-242.2308711072549
 31
0.0
  0
LINE
  5
2B2
330
B1
100
AcDbEntity
  8
0
 62
     7
100
AcDbLine
 10
1014.550033259391
 20
-158.2308736106495
 30
0.0
 11
1010.550002861023
 21
-158.2308736106495
 31
0.0
  0
LINE
  5
2B3
330
B1
100
AcDbEntity
  8
0
 62
     7
100
AcDbLine
 10
1014.550033259391
 20
-243.2309015950298
 30
0.0
 11
1010.550002861023
 21
-243.2309015950298
 31
0.0
  0
LINE
  5
2B4
330
B1
100
AcDbEntity
  8
0
 62
     7
100
AcDbLine
 10
1010.549929072152
 20
-243.230839169544
 30
0.0
 11
1009.549992802952
 21
-242.2309028160555
 31
0.0
  0
LINE
  5
2B5
330
B1
100
AcDbEntity
  8
0
 62
     7
100
AcDbLine
 10
1009.549988208946
 20
-159.2308885869882
 30
0.0
 11
1010.549989299995
 21
-158.2308875802339
 31
0.0
  0
LINE
  5
2B6
330
B1
100
AcDbEntity
  8
0
 62
     7
100
AcDbLine
 10
1106.549979233588
 20
-141.1105423284191
 30
0.0
 11
1092.049975792775
 21
-140.7308463815846
 31
0.0
  0
LINE
  5
2B7
330
B1
100
AcDbEntity
  8
0
 62
     7
100
AcDbLine
 10
1110.549993185221
 20
-158.2308703421743
 30
0.0
 11
1111.549994234123
 21
-159.2308713910754
 31
0.0
  0
LINE
  5
2B8
330
B1
100
AcDbEntity
  8
0
 62
     7
100
AcDbLine
 10
1111.550015109778
 20
-159.2308125456927
 30
0.0
 11
1111.550015109778
 21
-200.7308418264736
 31
0.0
  0
LINE
  5
2B9
330
B1
100
AcDbEntity
  8
0
 62
     7
100
AcDbLine
 10
1106.550000000001
 20
-141.1105585691169
 30
0.0
 11
1106.550000000001
 21
-292.3512309416767
 31
0.0
  0
LINE
  5
2BA
330
B1
100
AcDbEntity
  8
0
 62
     7
100
AcDbLine
 10
1111.550015109778
 20
-200.7308418264736
 30
0.0
 11
1111.550015109778
 21
-242.2308711072549
 31
0.0
  0
LINE
  5
2BB
330
B1
100
AcDbEntity
  8
0
 62
     7
100
AcDbLine
 10
1106.550000000001
 20
-158.2308736106495
 30
0.0
 11
1110.550030398369
 21
-158.2308736106495
 31
0.0
  0
LINE
  5
2BC
330
B1
100
AcDbEntity
  8
0
 62
     7
100
AcDbLine
 10
1106.550000000001
 20
-243.2308100422981
 30
0.0
 11
1110.550030398369
 21
-243.2308100422981
 31
0.0
  0
LINE
  5
2BD
330
B1
100
AcDbEntity
  8
0
 62
     7
100
AcDbLine
 10
1110.550082199363
 20
-243.2308704846548
 30
0.0
 11
1111.550083248264
 21
-242.2308694357532
 31
0.0
  0
LINE
  5
2BE
330
B1
100
AcDbEntity
  8
0
 62
     7
100
AcDbLine
 10
1106.550038795967
 20
-292.3511920486023
 30
0.0
 11
1092.050035355154
 21
-292.7308879954373
 31
0.0
  0
LINE
  5
2BF
330
B1
100
AcDbEntity
  8
0
 62
     7
100
AcDbLine
 10
1007.55000295043
 20
-223.2308411559218
 30
0.0
 11
1009.550018149614
 21
-223.2308411559218
 31
0.0
  0
LINE
  5
2C0
330
B1
100
AcDbEntity
  8
0
 62
     7
100
AcDbLine
 10
1007.55000295043
 20
-178.2308424970263
 30
0.0
 11
1009.550018149614
 21
-178.2308424970263
 31
0.0
  0
LINE
  5
2C1
330
B1
100
AcDbEntity
  8
0
 62
     7
100
AcDbLine
 10
1005.550033527612
 20
-179.385551324918
 30
0.0
 11
1005.550033527612
 21
-222.0761323280301
 31
0.0
  0
LINE
  5
2C2
330
B1
100
AcDbEntity
  8
0
 62
     7
100
AcDbLine
 10
1115.54999973178
 20
-179.385551324918
 30
0.0
 11
1115.54999973178
 21
-222.0761323280301
 31
0.0
  0
LINE
  5
2C3
330
B1
100
AcDbEntity
  8
0
 62
     7
100
AcDbLine
 10
1111.550015109778
 20
-223.2308411559218
 30
0.0
 11
1113.550030308962
 21
-223.2308411559218
 31
0.0
  0
LINE
  5
2C4
330
B1
100
AcDbEntity
  8
0
 62
     7
100
AcDbLine
 10
1111.550015109778
 20
-178.2308424970263
 30
0.0
 11
1113.550030308962
 21
-178.2308424970263
 31
0.0
  0
LINE
  5
2C5
330
B1
100
AcDbEntity
  8
0
 62
     7
100
AcDbLine
 10
1005.550027599364
 20
-179.3855804941175
 30
0.0
 11
1007.550002304751
 21
-178.2308945388656
 31
0.0
  0
LINE
  5
2C6
330
B1
100
AcDbEntity
  8
0
 62
     7
100
AcDbLine
 10
1005.549967946441
 20
-222.0761266122906
 30
0.0
 11
1007.549982295323
 21
-223.230835455726
 31
0.0
  0
LINE
  5
2C7
330
B1
100
AcDbEntity
  8
0
 62
     7
100
AcDbLine
 10
1009.550018149614
 20
-223.2308411559218
 30
0.0
 11
1009.550018149614
 21
-178.2308424970263
 31
0.0
  0
LINE
  5
2C8
330
B1
100
AcDbEntity
  8
0
 62
     7
100
AcDbLine
 10
1111.550015109778
 20
-223.2308411559218
 30
0.0
 11
1111.550015109778
 21
-178.2308424970263
 31
0.0
  0
LINE
  5
2C9
330
B1
100
AcDbEntity
  8
0
 62
     7
100
AcDbLine
 10
1115.549953923006
 20
-179.3855200302544
 30
0.0
 11
1113.550018861115
 21
-178.2308569631853
 31
0.0
  0
LINE
  5
2CA
330
B1
100
AcDbEntity
  8
0
 62
     7
100
AcDbLine
 10
1115.550002641682
 20
-222.0761223611155
 30
0.0
 11
1113.550008114547
 21
-223.2308197604591
 31
0.0
  0
LINE
  5
2CB
330
B1
100
AcDbEntity
  8
0
 62
     7
100
AcDbLine
 10
1028.05004277629
 20
-314.2377039807891
 30
0.0
 11
1093.04995559454
 21
-314.2377039807891
 31
0.0
  0
LINE
  5
2CC
330
B1
100
AcDbEntity
  8
0
 62
     7
100
AcDbLine
 10
1103.050016629696
 20
-304.2375364171433
 30
0.0
 11
1103.050016629696
 21
-292.4428433530859
 31
0.0
  0
LINE
  5
2CD
330
B1
100
AcDbEntity
  8
0
 62
     7
100
AcDbLine
 10
1018.050016629696
 20
-304.2376302697255
 30
0.0
 11
1018.050016629696
 21
-290.7930702174124
 31
0.0
  0
ARC
  5
2CE
330
B1
100
AcDbEntity
  8
0
 62
     7
100
AcDbCircle
 10
1093.04995559454
 20
-304.2376429456328
 30
0.0
 40
10.0
100
AcDbArc
 50
269.999909386289
 51
359.9998367587029
  0
ARC
  5
2CF
330
B1
100
AcDbEntity
  8
0
 62
     7
100
AcDbCircle
 10
1028.050077664852
 20
-304.2376429456328
 30
0.0
 40
10.0
100
AcDbArc
 50
179.9999273724009
 51
269.9998001032623
  0
LINE
  5
2D0
330
B1
100
AcDbEntity
  8
0
  6
CENTER
 62
     9
100
AcDbLine
 10
1060.550016629696
 20
-136.4469997481408
 30
0.0
 11
1060.550016629696
 21
-321.275279457114
 31
0.0
  0
LINE
  5
2D1
330
B1
100
AcDbEntity
  8
0
  6
CENTER
 62
     9
100
AcDbLine
 10
1600.911515573902
 20
-200.7308418264736
 30
0.0
 11
982.1439820097882
 21
-200.7308418264736
 31
0.0
  0
LINE
  5
2D2
330
B1
100
AcDbEntity
  8
0
  6
CENTER
 62
     9
100
AcDbLine
 10
1011.595626609159
 20
-279.7308928778505
 30
0.0
 11
1110.504803348935
 21
-279.7308928778505
 31
0.0
  0
LINE
  5
2D3
330
B1
100
AcDbEntity
  8
0
  6
CENTER
 62
     9
100
AcDbLine
 10
1012.141097784308
 20
-153.73087374476
 30
0.0
 11
1109.780026148856
 21
-153.73087374476
 31
0.0
  0
ENDBLK
  5
B3
330
B1
100
AcDbEntity
  8
0
100
AcDbBlockEnd
  0
BLOCK
  5
B5
330
B4
100
AcDbEntity
  8
0
100
AcDbBlockBegin
  2
GROUP_33
 70
     0
 71
     0
 10
0.0
 20
0.0
 30
0.0
  3
GROUP_33
  1

  0
LINE
  5
2D4
330
B4
100
AcDbEntity
  8
0
 62
     2
100
AcDbLine
 10
1106.250000000001
 20
-888.7845158642028
 30
0.0
 11
1136.250000000001
 21
-888.7845158642028
 31
0.0
  0
LINE
  5
2D5
330
B4
100
AcDbEntity
  8
0
 62
     2
100
AcDbLine
 10
1136.250000000001
 20
-888.7845158642028
 30
0.0
 11
1136.250000000001
 21
-1138.784515864203
 31
0.0
  0
LINE
  5
2D6
330
B4
100
AcDbEntity
  8
0
 62
     2
100
AcDbLine
 10
1106.250000000001
 20
-888.7845158642028
 30
0.0
 11
1106.250000000001
 21
-1138.784515864203
 31
0.0
  0
LINE
  5
2D7
330
B4
100
AcDbEntity
  8
0
 62
     2
100
AcDbLine
 10
1151.250000000001
 20
-1138.784515864203
 30
0.0
 11
1151.250000000001
 21
-1144.784515864203
 31
0.0
  0
LINE
  5
2D8
330
B4
100
AcDbEntity
  8
0
 62
     2
100
AcDbLine
 10
1091.250000000001
 20
-1138.784515864203
 30
0.0
 11
1091.250000000001
 21
-1144.784515864203
 31
0.0
  0
LINE
  5
2D9
330
B4
100
AcDbEntity
  8
0
 62
     2
100
AcDbLine
 10
1091.250000000001
 20
-1138.784515864203
 30
0.0
 11
1151.250000000001
 21
-1138.784515864203
 31
0.0
  0
LINE
  5
2DA
330
B4
100
AcDbEntity
  8
0
 62
     2
100
AcDbLine
 10
1151.250000000001
 20
-1144.784515864203
 30
0.0
 11
1091.250000000001
 21
-1144.784515864203
 31
0.0
  0
LINE
  5
2DB
330
B4
100
AcDbEntity
  8
0
  6
CENTER
 62
     9
100
AcDbLine
 10
1121.250000000001
 20
-868.6866897772462
 30
0.0
 11
1121.250000000001
 21
-1247.469298472898
 31
0.0
  0
LINE
  5
2DC
330
B4
100
AcDbEntity
  8
0
  6
CENTER
 62
     9
100
AcDbLine
 10
1095.949997
 20
-1197.284515864203
 30
0.0
 11
1147.74999
 21
-1197.284515864203
 31
0.0
  0
ENDBLK
  5
B6
330
B4
100
AcDbEntity
  8
0
100
AcDbBlockEnd
  0
BLOCK
  5
B8
330
B7
100
AcDbEntity
  8
0
100
AcDbBlockBegin
  2
GROUP_34
 70
     0
 71
     0
 10
0.0
 20
0.0
 30
0.0
  3
GROUP_34
  1

  0
LINE
  5
2DE
330
B7
100
AcDbEntity
  8
0
 62
     2
100
AcDbLine
 10
1108.250000000001
 20
-1234.784515864203
 30
0.0
 11
1134.250000000001
 21
-1234.784515864203
 31
0.0
  0
LINE
  5
2DF
330
B7
100
AcDbEntity
  8
0
 62
     2
100
AcDbLine
 10
1134.250000000001
 20
-1159.784515864203
 30
0.0
 11
1108.250000000001
 21
-1159.784515864203
 31
0.0
  0
LINE
  5
2E0
330
B7
100
AcDbEntity
  8
0
 62
     2
100
AcDbLine
 10
1108.250000000001
 20
-1159.784515864203
 30
0.0
 11
1108.250000000001
 21
-1234.784515864203
 31
0.0
  0
LINE
  5
2E1
330
B7
100
AcDbEntity
  8
0
 62
     2
100
AcDbLine
 10
1134.250000000001
 20
-1234.784515864203
 30
0.0
 11
1134.250000000001
 21
-1159.784515864203
 31
0.0
  0
ENDBLK
  5
B9
330
B7
100
AcDbEntity
  8
0
100
AcDbBlockEnd
  0
BLOCK
  5
BB
330
BA
100
AcDbEntity
  8
0
100
AcDbBlockBegin
  2
GROUP_35
 70
     0
 71
     0
 10
0.0
 20
0.0
 30
0.0
  3
GROUP_35
  1

  0
LINE
  5
2E2
330
BA
100
AcDbEntity
  8
0
 62
     2
100
AcDbLine
 10
1506.250000000001
 20
-888.7845158642028
 30
0.0
 11
1536.250000000001
 21
-888.7845158642028
 31
0.0
  0
LINE
  5
2E3
330
BA
100
AcDbEntity
  8
0
 62
     2
100
AcDbLine
 10
1536.250000000001
 20
-888.7845158642028
 30
0.0
 11
1536.250000000001
 21
-1138.784515864203
 31
0.0
  0
LINE
  5
2E4
330
BA
100
AcDbEntity
  8
0
 62
     2
100
AcDbLine
 10
1506.250000000001
 20
-888.7845158642028
 30
0.0
 11
1506.250000000001
 21
-1138.784515864203
 31
0.0
  0
LINE
  5
2E5
330
BA
100
AcDbEntity
  8
0
 62
     2
100
AcDbLine
 10
1551.250000000001
 20
-1138.784515864203
 30
0.0
 11
1551.250000000001
 21
-1144.784515864203
 31
0.0
  0
LINE
  5
2E6
330
BA
100
AcDbEntity
  8
0
 62
     2
100
AcDbLine
 10
1491.250000000001
 20
-1138.784515864203
 30
0.0
 11
1491.250000000001
 21
-1144.784515864203
 31
0.0
  0
LINE
  5
2E7
330
BA
100
AcDbEntity
  8
0
 62
     2
100
AcDbLine
 10
1491.250000000001
 20
-1138.784515864203
 30
0.0
 11
1551.250000000001
 21
-1138.784515864203
 31
0.0
  0
LINE
  5
2E8
330
BA
100
AcDbEntity
  8
0
 62
     2
100
AcDbLine
 10
1551.250000000001
 20
-1144.784515864203
 30
0.0
 11
1491.250000000001
 21
-1144.784515864203
 31
0.0
  0
LINE
  5
2E9
330
BA
100
AcDbEntity
  8
0
  6
CENTER
 62
     9
100
AcDbLine
 10
1521.250000000001
 20
-868.6866897772462
 30
0.0
 11
1521.250000000001
 21
-1247.469298472898
 31
0.0
  0
LINE
  5
2EA
330
BA
100
AcDbEntity
  8
0
  6
CENTER
 62
     9
100
AcDbLine
 10
1495.949997
 20
-1197.284515864203
 30
0.0
 11
1547.749990000001
 21
-1197.284515864203
 31
0.0
  0
ENDBLK
  5
BC
330
BA
100
AcDbEntity
  8
0
100
AcDbBlockEnd
  0
BLOCK
  5
BE
330
BD
100
AcDbEntity
  8
0
100
AcDbBlockBegin
  2
GROUP_36
 70
     0
 71
     0
 10
0.0
 20
0.0
 30
0.0
  3
GROUP_36
  1

  0
LINE
  5
2EC
330
BD
100
AcDbEntity
  8
0
 62
     2
100
AcDbLine
 10
1508.250000000001
 20
-1234.784515864203
 30
0.0
 11
1534.250000000001
 21
-1234.784515864203
 31
0.0
  0
LINE
  5
2ED
330
BD
100
AcDbEntity
  8
0
 62
     2
100
AcDbLine
 10
1534.250000000001
 20
-1159.784515864203
 30
0.0
 11
1508.250000000001
 21
-1159.784515864203
 31
0.0
  0
LINE
  5
2EE
330
BD
100
AcDbEntity
  8
0
 62
     2
100
AcDbLine
 10
1508.250000000001
 20
-1159.784515864203
 30
0.0
 11
1508.250000000001
 21
-1234.784515864203
 31
0.0
  0
LINE
  5
2EF
330
BD
100
AcDbEntity
  8
0
 62
     2
100
AcDbLine
 10
1534.250000000001
 20
-1234.784515864203
 30
0.0
 11
1534.250000000001
 21
-1159.784515864203
 31
0.0
  0
ENDBLK
  5
BF
330
BD
100
AcDbEntity
  8
0
100
AcDbBlockEnd
  0
BLOCK
  5
C1
330
C0
100
AcDbEntity
  8
0
100
AcDbBlockBegin
  2
GROUP_37
 70
     0
 71
     0
 10
0.0
 20
0.0
 30
0.0
  3
GROUP_37
  1

  0
LINE
  5
2F3
330
C0
100
AcDbEntity
  8
0
 62
     7
100
AcDbLine
 10
1443.25
 20
-1038.799637227583
 30
0.0
 11
1443.25
 21
-1064.79147090967
 31
0.0
  0
LINE
  5
2F4
330
C0
100
AcDbEntity
  8
0
 62
     7
100
AcDbLine
 10
1411.25
 20
-1038.799637227583
 30
0.0
 11
1443.25
 21
-1038.799637227583
 31
0.0
  0
LINE
  5
2F5
330
C0
100
AcDbEntity
  8
0
 62
     7
100
AcDbLine
 10
1443.25
 20
-1040.278048729863
 30
0.0
 11
1411.25
 21
-1040.278048729863
 31
0.0
  0
LINE
  5
2F6
330
C0
100
AcDbEntity
  8
0
 62
     7
100
AcDbLine
 10
1411.25
 20
-1064.79147090967
 30
0.0
 11
1443.25
 21
-1064.79147090967
 31
0.0
  0
LINE
  5
2F7
330
C0
100
AcDbEntity
  8
0
 62
     7
100
AcDbLine
 10
1231.250000000001
 20
-1064.79147090967
 30
0.0
 11
1199.250000000001
 21
-1064.79147090967
 31
0.0
  0
LINE
  5
2F8
330
C0
100
AcDbEntity
  8
0
 62
     7
100
AcDbLine
 10
1199.250000000001
 20
-1038.799637227583
 30
0.0
 11
1231.250000000001
 21
-1038.799637227583
 31
0.0
  0
LINE
  5
2F9
330
C0
100
AcDbEntity
  8
0
 62
     7
100
AcDbLine
 10
1231.250000000001
 20
-1040.278048729863
 30
0.0
 11
1199.250000000001
 21
-1040.278048729863
 31
0.0
  0
LINE
  5
2FA
330
C0
100
AcDbEntity
  8
0
 62
     7
100
AcDbLine
 10
1199.250000000001
 20
-1038.799637227583
 30
0.0
 11
1199.250000000001
 21
-1064.79147090967
 31
0.0
  0
LINE
  5
2FB
330
C0
100
AcDbEntity
  8
0
  6
DASHED2
 62
     7
100
AcDbLine
 10
1231.250000000001
 20
-941.0775258642632
 30
0.0
 11
1231.250000000001
 21
-957.0775258642632
 31
0.0
  0
LINE
  5
2FC
330
C0
100
AcDbEntity
  8
0
  6
DASHED2
 62
     7
100
AcDbLine
 10
1411.25
 20
-957.0775258642632
 30
0.0
 11
1411.25
 21
-941.0775258642632
 31
0.0
  0
ENDBLK
  5
C2
330
C0
100
AcDbEntity
  8
0
100
AcDbBlockEnd
  0
BLOCK
  5
C4
330
C3
100
AcDbEntity
  8
0
100
AcDbBlockBegin
  2
GROUP_38
 70
     0
 71
     0
 10
0.0
 20
0.0
 30
0.0
  3
GROUP_38
  1

  0
LINE
  5
2FD
330
C3
100
AcDbEntity
  8
0
 62
     7
100
AcDbLine
 10
1411.25
 20
-854.1292490519647
 30
0.0
 11
1231.250000000001
 21
-854.1292490519647
 31
0.0
  0
LINE
  5
2FE
330
C3
100
AcDbEntity
  8
0
 62
     7
100
AcDbLine
 10
1231.250000000001
 20
-880.940804561129
 30
0.0
 11
1411.25
 21
-880.940804561129
 31
0.0
  0
LINE
  5
2FF
330
C3
100
AcDbEntity
  8
0
 62
     7
100
AcDbLine
 10
1411.25
 20
-895.5320833010137
 30
0.0
 11
1231.250000000001
 21
-895.5320833010137
 31
0.0
  0
LINE
  5
300
330
C3
100
AcDbEntity
  8
0
  6
DASHED2
 62
     7
100
AcDbLine
 10
1411.25
 20
-1225.484875864263
 30
0.0
 11
1231.250000000001
 21
-1225.484875864263
 31
0.0
  0
ENDBLK
  5
C5
330
C3
100
AcDbEntity
  8
0
100
AcDbBlockEnd
  0
BLOCK
  5
C7
330
C6
100
AcDbEntity
  8
0
100
AcDbBlockBegin
  2
GROUP_39
 70
     0
 71
     0
 10
0.0
 20
0.0
 30
0.0
  3
GROUP_39
  1

  0
LINE
  5
304
330
C6
100
AcDbEntity
  8
0
 62
     7
100
AcDbLine
 10
1231.250000000001
 20
-1227.784875864263
 30
0.0
 11
1411.25
 21
-1227.784875864263
 31
0.0
  0
LINE
  5
305
330
C6
100
AcDbEntity
  8
0
 62
     7
100
AcDbLine
 10
1411.25
 20
-852.6508375496858
 30
0.0
 11
1231.250000000001
 21
-852.6508375496858
 31
0.0
  0
LINE
  5
306
330
C6
100
AcDbEntity
  8
0
 62
     7
100
AcDbLine
 10
1411.25
 20
-1227.784875864263
 30
0.0
 11
1411.25
 21
-957.0775258642632
 31
0.0
  0
LINE
  5
307
330
C6
100
AcDbEntity
  8
0
 62
     7
100
AcDbLine
 10
1411.25
 20
-941.0775258642632
 30
0.0
 11
1411.25
 21
-852.6508375496858
 31
0.0
  0
LINE
  5
308
330
C6
100
AcDbEntity
  8
0
 62
     7
100
AcDbLine
 10
1231.250000000001
 20
-852.6508375496858
 30
0.0
 11
1231.250000000001
 21
-941.0775258642632
 31
0.0
  0
LINE
  5
309
330
C6
100
AcDbEntity
  8
0
 62
     7
100
AcDbLine
 10
1231.250000000001
 20
-957.0775258642632
 30
0.0
 11
1231.250000000001
 21
-1227.784875864263
 31
0.0
  0
ENDBLK
  5
C8
330
C6
100
AcDbEntity
  8
0
100
AcDbBlockEnd
  0
BLOCK
  5
CA
330
C9
100
AcDbEntity
  8
0
100
AcDbBlockBegin
  2
GROUP_40
 70
     0
 71
     0
 10
0.0
 20
0.0
 30
0.0
  3
GROUP_40
  1

  0
LINE
  5
30A
330
C9
100
AcDbEntity
  8
0
  6
CENTER
 62
     9
100
AcDbLine
 10
1256.250000000001
 20
-866.3859601418683
 30
0.0
 11
1236.250000000001
 21
-866.3859601418683
 31
0.0
  0
LINE
  5
30B
330
C9
100
AcDbEntity
  8
0
  6
CENTER
 62
     9
100
AcDbLine
 10
1246.250000000001
 20
-856.3859601418683
 30
0.0
 11
1246.250000000001
 21
-876.3859601418683
 31
0.0
  0
ENDBLK
  5
CB
330
C9
100
AcDbEntity
  8
0
100
AcDbBlockEnd
  0
BLOCK
  5
CD
330
CC
100
AcDbEntity
  8
0
100
AcDbBlockBegin
  2
GROUP_41
 70
     0
 71
     0
 10
0.0
 20
0.0
 30
0.0
  3
GROUP_41
  1

  0
LINE
  5
30C
330
CC
100
AcDbEntity
  8
0
  6
CENTER
 62
     9
100
AcDbLine
 10
1386.25
 20
-866.3859601418683
 30
0.0
 11
1406.25
 21
-866.3859601418683
 31
0.0
  0
LINE
  5
30D
330
CC
100
AcDbEntity
  8
0
  6
CENTER
 62
     9
100
AcDbLine
 10
1396.25
 20
-856.3859601418683
 30
0.0
 11
1396.25
 21
-876.3859601418683
 31
0.0
  0
ENDBLK
  5
CE
330
CC
100
AcDbEntity
  8
0
100
AcDbBlockEnd
  0
BLOCK
  5
D0
330
CF
100
AcDbEntity
  8
0
100
AcDbBlockBegin
  2
GROUP_42
 70
     0
 71
     0
 10
0.0
 20
0.0
 30
0.0
  3
GROUP_42
  1

  0
LINE
  5
30E
330
CF
100
AcDbEntity
  8
0
  6
CENTER
 62
     9
100
AcDbLine
 10
1437.25
 20
-1052.534759819766
 30
0.0
 11
1417.25
 21
-1052.534759819766
 31
0.0
  0
LINE
  5
30F
330
CF
100
AcDbEntity
  8
0
  6
CENTER
 62
     9
100
AcDbLine
 10
1427.25
 20
-1042.534759819766
 30
0.0
 11
1427.25
 21
-1062.534759819766
 31
0.0
  0
ENDBLK
  5
D1
330
CF
100
AcDbEntity
  8
0
100
AcDbBlockEnd
  0
BLOCK
  5
D3
330
D2
100
AcDbEntity
  8
0
100
AcDbBlockBegin
  2
GROUP_43
 70
     0
 71
     0
 10
0.0
 20
0.0
 30
0.0
  3
GROUP_43
  1

  0
LINE
  5
310
330
D2
100
AcDbEntity
  8
0
  6
CENTER
 62
     9
100
AcDbLine
 10
1225.250000000001
 20
-1052.534759819766
 30
0.0
 11
1205.250000000001
 21
-1052.534759819766
 31
0.0
  0
LINE
  5
311
330
D2
100
AcDbEntity
  8
0
  6
CENTER
 62
     9
100
AcDbLine
 10
1215.250000000001
 20
-1042.534759819766
 30
0.0
 11
1215.250000000001
 21
-1062.534759819766
 31
0.0
  0
ENDBLK
  5
D4
330
D2
100
AcDbEntity
  8
0
100
AcDbBlockEnd
  0
BLOCK
  5
D6
330
D5
100
AcDbEntity
  8
0
100
AcDbBlockBegin
  2
GROUP_44
 70
     0
 71
     0
 10
0.0
 20
0.0
 30
0.0
  3
GROUP_44
  1

  0
LINE
  5
312
330
D5
100
AcDbEntity
  8
0
 62
     4
100
AcDbLine
 10
1174.250000000001
 20
5.376431281032524
 30
0.0
 11
1468.250000000001
 21
5.376431281032524
 31
0.0
  0
LINE
  5
313
330
D5
100
AcDbEntity
  8
0
 62
     4
100
AcDbLine
 10
1174.250000000001
 20
5.376431281032524
 30
0.0
 11
1174.250000000001
 21
-1196.784875864263
 31
0.0
  0
LINE
  5
314
330
D5
100
AcDbEntity
  8
0
 62
     4
100
AcDbLine
 10
1468.250000000001
 20
5.376431281032524
 30
0.0
 11
1468.250000000001
 21
-1196.784875864263
 31
0.0
  0
LINE
  5
315
330
D5
100
AcDbEntity
  8
0
 62
     4
100
AcDbLine
 10
1174.250000000001
 20
-59.62480870897025
 30
0.0
 11
1468.250000000001
 21
-59.62480870897025
 31
0.0
  0
LINE
  5
316
330
D5
100
AcDbEntity
  8
0
 62
     4
100
AcDbLine
 10
1413.250000000001
 20
-404.6248087089514
 30
0.0
 11
1413.250000000001
 21
-74.62480870897025
 31
0.0
  0
LINE
  5
317
330
D5
100
AcDbEntity
  8
0
 62
     4
100
AcDbLine
 10
1413.250000000001
 20
-74.62480870897025
 30
0.0
 11
1229.250000000001
 21
-74.62480870897025
 31
0.0
  0
LINE
  5
318
330
D5
100
AcDbEntity
  8
0
 62
     4
100
AcDbLine
 10
1229.250000000001
 20
-404.6248087089514
 30
0.0
 11
1229.250000000001
 21
-74.62480870897025
 31
0.0
  0
LINE
  5
319
330
D5
100
AcDbEntity
  8
0
 62
     4
100
AcDbLine
 10
1174.250000000001
 20
-404.6248087089514
 30
0.0
 11
1468.250000000001
 21
-404.6248087089514
 31
0.0
  0
LINE
  5
31A
330
D5
100
AcDbEntity
  8
0
 62
     4
100
AcDbLine
 10
1231.250000000001
 20
-1196.784875864263
 30
0.0
 11
1174.250000000001
 21
-1196.784875864263
 31
0.0
  0
LINE
  5
31B
330
D5
100
AcDbEntity
  8
0
 62
     4
100
AcDbLine
 10
1468.250000000001
 20
-1196.784875864263
 30
0.0
 11
1411.25
 21
-1196.784875864263
 31
0.0
  0
LINE
  5
31C
330
D5
100
AcDbEntity
  8
0
  6
DASHED2
 62
     4
100
AcDbLine
 10
1174.250000000001
 20
-1016.784875864263
 30
0.0
 11
1468.250000000001
 21
-1016.784875864263
 31
0.0
  0
LINE
  5
31D
330
D5
100
AcDbEntity
  8
0
  6
DASHED2
 62
     4
100
AcDbLine
 10
1231.250000000001
 20
-1196.784875864263
 30
0.0
 11
1411.25
 21
-1196.784875864263
 31
0.0
  0
LINE
  5
31E
330
D5
100
AcDbEntity
  8
0
 62
     4
100
AcDbLine
 10
1198.250000000001
 20
-1234.785005864263
 30
0.0
 11
1207.250000000001
 21
-1234.785005864263
 31
0.0
  0
LINE
  5
31F
330
D5
100
AcDbEntity
  8
0
 62
     4
100
AcDbLine
 10
1207.250000000001
 20
-1196.784875864263
 30
0.0
 11
1207.250000000001
 21
-1234.785005864263
 31
0.0
  0
LINE
  5
320
330
D5
100
AcDbEntity
  8
0
 62
     4
100
AcDbLine
 10
1198.250000000001
 20
-1196.784875864263
 30
0.0
 11
1198.250000000001
 21
-1234.785005864263
 31
0.0
  0
LINE
  5
321
330
D5
100
AcDbEntity
  8
0
 62
     4
100
AcDbLine
 10
1444.250000000001
 20
-1196.784875864263
 30
0.0
 11
1444.250000000001
 21
-1234.785005864263
 31
0.0
  0
LINE
  5
322
330
D5
100
AcDbEntity
  8
0
 62
     4
100
AcDbLine
 10
1435.250000000001
 20
-1196.784875864263
 30
0.0
 11
1435.250000000001
 21
-1234.785005864263
 31
0.0
  0
LINE
  5
323
330
D5
100
AcDbEntity
  8
0
 62
     4
100
AcDbLine
 10
1444.250000000001
 20
-1234.785005864263
 30
0.0
 11
1435.250000000001
 21
-1234.785005864263
 31
0.0
  0
ENDBLK
  5
D7
330
D5
100
AcDbEntity
  8
0
100
AcDbBlockEnd
  0
BLOCK
  5
D9
330
D8
100
AcDbEntity
  8
0
100
AcDbBlockBegin
  2
DA_IMAGEDIMGROUP_3
 70
     0
 71
     0
 10
0.0
 20
0.0
 30
0.0
  3
DA_IMAGEDIMGROUP_3
  1

  0
LINE
  5
324
330
D8
100
AcDbEntity
  8
LAYER0016
 62
     8
100
AcDbLine
 10
-1701.276399631618
 20
-1211.785325864263
 30
0.0
 11
-1701.276399631618
 21
-1399.784795864263
 31
0.0
  0
LINE
  5
325
330
D8
100
AcDbEntity
  8
LAYER0016
 62
     8
100
AcDbLine
 10
272.5000000000005
 20
-419.6248087089514
 30
0.0
 11
272.5000000000005
 21
-1399.784795864263
 31
0.0
  0
LINE
  5
326
330
D8
100
AcDbEntity
  8
LAYER0016
 62
     8
100
AcDbLine
 10
-1701.276399631618
 20
-1384.784795864263
 30
0.0
 11
272.5000000000005
 21
-1384.784795864263
 31
0.0
  0
INSERT
  5
327
330
D8
100
AcDbEntity
  8
LAYER0016
 62
     8
100
AcDbBlockReference
  2
_OPEN30
 10
-1701.276399631618
 20
-1384.784795864263
 30
0.0
 41
29.99997611445993
 42
30.00008592479957
 50
180.0
  0
INSERT
  5
328
330
D8
100
AcDbEntity
  8
LAYER0016
 62
     8
100
AcDbBlockReference
  2
_OPEN30
 10
272.5000000000005
 20
-1384.784795864263
 30
0.0
 41
29.99997611445993
 42
30.00008592479957
 50
360.0
  0
TEXT
  5
329
330
D8
100
AcDbEntity
  8
LAYER0016
 62
     7
100
AcDbText
 10
-732.388199815809
 20
-1369.784795864263
 30
0.0
 40
45.0
  1
C
 41
0.9333333333333334
  7
FDASTYLE0
 72
     5
 11
-696.388199815809
 21
-1369.784795864263
 31
0.0
100
AcDbText
  0
ENDBLK
  5
DA
330
D8
100
AcDbEntity
  8
0
100
AcDbBlockEnd
  0
BLOCK
  5
DC
330
DB
100
AcDbEntity
  8
0
100
AcDbBlockBegin
  2
DA_IMAGEDIMGROUP_4
 70
     0
 71
     0
 10
0.0
 20
0.0
 30
0.0
  3
DA_IMAGEDIMGROUP_4
  1

  0
LINE
  5
32A
330
DB
100
AcDbEntity
  8
LAYER0016
 62
     8
100
AcDbLine
 10
-1456.276364899575
 20
-1234.784515864203
 30
0.0
 11
437.5000000000005
 21
-1234.784515864203
 31
0.0
  0
LINE
  5
32B
330
DB
100
AcDbEntity
  8
LAYER0016
 62
     8
100
AcDbLine
 10
287.5000000000005
 20
-404.6248087089514
 30
0.0
 11
437.5000000000005
 21
-404.6248087089514
 31
0.0
  0
LINE
  5
32C
330
DB
100
AcDbEntity
  8
LAYER0016
 62
     8
100
AcDbLine
 10
187.5000000000027
 20
5.375191291044075
 30
0.0
 11
437.5000000000005
 21
5.375191291044075
 31
0.0
  0
LINE
  5
32D
330
DB
100
AcDbEntity
  8
LAYER0016
 62
     8
100
AcDbLine
 10
422.5000000000005
 20
-1234.784515864203
 30
0.0
 11
422.5000000000005
 21
-404.6248087089514
 31
0.0
  0
INSERT
  5
32E
330
DB
100
AcDbEntity
  8
LAYER0016
 62
     8
100
AcDbBlockReference
  2
_OPEN30
 10
422.5000000000005
 20
-1234.784515864203
 30
0.0
 41
29.99997611445993
 42
30.00008592479957
 50
270.0
  0
INSERT
  5
32F
330
DB
100
AcDbEntity
  8
LAYER0016
 62
     8
100
AcDbBlockReference
  2
_OPEN30
 10
422.5000000000005
 20
-404.6248087089514
 30
0.0
 41
29.99997611445993
 42
30.00008592479957
 50
90.0
  0
LINE
  5
330
330
DB
100
AcDbEntity
  8
LAYER0016
 62
     8
100
AcDbLine
 10
422.5000000000005
 20
-404.6248087089514
 30
0.0
 11
422.5000000000005
 21
5.375191291044075
 31
0.0
  0
INSERT
  5
331
330
DB
100
AcDbEntity
  8
LAYER0016
 62
     8
100
AcDbBlockReference
  2
_OPEN30
 10
422.5000000000005
 20
-404.6248087089514
 30
0.0
 41
29.99997611445993
 42
30.00008592479957
 50
270.0
  0
INSERT
  5
332
330
DB
100
AcDbEntity
  8
LAYER0016
 62
     8
100
AcDbBlockReference
  2
_OPEN30
 10
422.5000000000005
 20
5.375191291044075
 30
0.0
 41
29.99997611445993
 42
30.00008592479957
 50
90.0
  0
TEXT
  5
333
330
DB
100
AcDbEntity
  8
LAYER0016
 62
     7
100
AcDbText
 10
407.5000000000005
 20
-837.7046622865771
 30
0.0
 40
45.0
  1
E
 50
90.0
 41
0.988235294117647
  7
FDASTYLE0
 72
     5
 11
407.5000000000005
 21
-801.7046622865771
 31
0.0
100
AcDbText
  0
TEXT
  5
334
330
DB
100
AcDbEntity
  8
LAYER0016
 62
     7
100
AcDbText
 10
407.5000000000005
 20
-253.6248087089537
 30
0.0
 40
45.0
  1
410
 50
90.0
 41
0.8842105263157896
  7
FDASTYLE0
 72
     5
 11
407.5000000000005
 21
-145.6248087089537
 31
0.0
100
AcDbText
  0
ENDBLK
  5
DD
330
DB
100
AcDbEntity
  8
0
100
AcDbBlockEnd
  0
BLOCK
  5
DF
330
DE
100
AcDbEntity
  8
0
100
AcDbBlockBegin
  2
DA_IMAGEDIMGROUP_5
 70
     0
 71
     0
 10
0.0
 20
0.0
 30
0.0
  3
DA_IMAGEDIMGROUP_5
  1

  0
LINE
  5
335
330
DE
100
AcDbEntity
  8
LAYER0016
 62
     8
100
AcDbLine
 10
-1456.276364899575
 20
-1234.784515864203
 30
0.0
 11
587.5000000000005
 21
-1234.784515864203
 31
0.0
  0
LINE
  5
336
330
DE
100
AcDbEntity
  8
LAYER0016
 62
     8
100
AcDbLine
 10
187.5000000000027
 20
5.375191291044075
 30
0.0
 11
587.5000000000005
 21
5.375191291044075
 31
0.0
  0
LINE
  5
337
330
DE
100
AcDbEntity
  8
LAYER0016
 62
     8
100
AcDbLine
 10
572.5000000000005
 20
-1234.784515864203
 30
0.0
 11
572.5000000000005
 21
5.375191291044075
 31
0.0
  0
INSERT
  5
338
330
DE
100
AcDbEntity
  8
LAYER0016
 62
     8
100
AcDbBlockReference
  2
_OPEN30
 10
572.5000000000005
 20
-1234.784515864203
 30
0.0
 41
29.99997611445993
 42
30.00008592479957
 50
270.0
  0
INSERT
  5
339
330
DE
100
AcDbEntity
  8
LAYER0016
 62
     8
100
AcDbBlockReference
  2
_OPEN30
 10
572.5000000000005
 20
5.375191291044075
 30
0.0
 41
29.99997611445993
 42
30.00008592479957
 50
90.0
  0
TEXT
  5
33A
330
DE
100
AcDbEntity
  8
LAYER0016
 62
     7
100
AcDbText
 10
557.5000000000005
 20
-632.7046622865794
 30
0.0
 40
45.0
  1
D
 50
90.0
 41
0.9333333333333334
  7
FDASTYLE0
 72
     5
 11
557.5000000000005
 21
-596.7046622865794
 31
0.0
100
AcDbText
  0
ENDBLK
  5
E0
330
DE
100
AcDbEntity
  8
0
100
AcDbBlockEnd
  0
BLOCK
  5
E2
330
E1
100
AcDbEntity
  8
0
100
AcDbBlockBegin
  2
DA_IMAGEDIMGROUP_6
 70
     0
 71
     0
 10
0.0
 20
0.0
 30
0.0
  3
DA_IMAGEDIMGROUP_6
  1

  0
LINE
  5
33B
330
E1
100
AcDbEntity
  8
LAYER0016
 62
     8
100
AcDbLine
 10
-1630.776399631618
 20
-608.4674287227714
 30
0.0
 11
-1630.776399631618
 21
-796.4675587227715
 31
0.0
  0
LINE
  5
33C
330
E1
100
AcDbEntity
  8
LAYER0016
 62
     8
100
AcDbLine
 10
-1336.776399631618
 20
-608.4674287227714
 30
0.0
 11
-1336.776399631618
 21
-796.4675587227715
 31
0.0
  0
LINE
  5
33D
330
E1
100
AcDbEntity
  8
LAYER0016
 62
     8
100
AcDbLine
 10
-1630.776399631618
 20
-781.4675587227715
 30
0.0
 11
-1336.776399631618
 21
-781.4675587227715
 31
0.0
  0
INSERT
  5
33E
330
E1
100
AcDbEntity
  8
LAYER0016
 62
     8
100
AcDbBlockReference
  2
_OPEN30
 10
-1630.776399631618
 20
-781.4675587227715
 30
0.0
 41
29.99997611445993
 42
30.00008592479957
 50
180.0
  0
INSERT
  5
33F
330
E1
100
AcDbEntity
  8
LAYER0016
 62
     8
100
AcDbBlockReference
  2
_OPEN30
 10
-1336.776399631618
 20
-781.4675587227715
 30
0.0
 41
29.99997611445993
 42
30.00008592479957
 50
360.0
  0
TEXT
  5
340
330
E1
100
AcDbEntity
  8
LAYER0016
 62
     7
100
AcDbText
 10
-1501.776399631618
 20
-766.4675587227715
 30
0.0
 40
45.0
  1
A
 41
0.988235294117647
  7
FDASTYLE0
 72
     5
 11
-1465.776399631618
 21
-766.4675587227715
 31
0.0
100
AcDbText
  0
ENDBLK
  5
E3
330
E1
100
AcDbEntity
  8
0
100
AcDbBlockEnd
  0
BLOCK
  5
E5
330
E4
100
AcDbEntity
  8
0
100
AcDbBlockBegin
  2
DA_IMAGEDIMGROUP_7
 70
     0
 71
     0
 10
0.0
 20
0.0
 30
0.0
  3
DA_IMAGEDIMGROUP_7
  1

  0
LINE
  5
341
330
E4
100
AcDbEntity
  8
LAYER0016
 62
     8
100
AcDbLine
 10
1174.250000000001
 20
-1211.784875864263
 30
0.0
 11
1174.250000000001
 21
-1399.785005864263
 31
0.0
  0
LINE
  5
342
330
E4
100
AcDbEntity
  8
LAYER0016
 62
     8
100
AcDbLine
 10
1468.250000000001
 20
-1211.784875864263
 30
0.0
 11
1468.250000000001
 21
-1399.785005864263
 31
0.0
  0
LINE
  5
343
330
E4
100
AcDbEntity
  8
LAYER0016
 62
     8
100
AcDbLine
 10
1174.250000000001
 20
-1384.785005864263
 30
0.0
 11
1468.250000000001
 21
-1384.785005864263
 31
0.0
  0
INSERT
  5
344
330
E4
100
AcDbEntity
  8
LAYER0016
 62
     8
100
AcDbBlockReference
  2
_OPEN30
 10
1174.250000000001
 20
-1384.785005864263
 30
0.0
 41
29.99997611445993
 42
30.00008592479957
 50
180.0
  0
INSERT
  5
345
330
E4
100
AcDbEntity
  8
LAYER0016
 62
     8
100
AcDbBlockReference
  2
_OPEN30
 10
1468.250000000001
 20
-1384.785005864263
 30
0.0
 41
29.99997611445993
 42
30.00008592479957
 50
360.0
  0
TEXT
  5
346
330
E4
100
AcDbEntity
  8
LAYER0016
 62
     7
100
AcDbText
 10
1303.250000000001
 20
-1369.785005864263
 30
0.0
 40
45.0
  1
A
 41
0.988235294117647
  7
FDASTYLE0
 72
     5
 11
1339.250000000001
 21
-1369.785005864263
 31
0.0
100
AcDbText
  0
ENDBLK
  5
E6
330
E4
100
AcDbEntity
  8
0
100
AcDbBlockEnd
  0
BLOCK
  5
E8
330
E7
100
AcDbEntity
  8
0
100
AcDbBlockBegin
  2
DA_IMAGEDIMGROUP_8
 70
     0
 71
     0
 10
0.0
 20
0.0
 30
0.0
  3
DA_IMAGEDIMGROUP_8
  1

  0
LINE
  5
347
330
E7
100
AcDbEntity
  8
LAYER0016
 62
     8
100
AcDbLine
 10
60.4795829866639
 20
631.3149732515376
 30
0.0
 11
437.5000000000005
 21
631.3149732515376
 31
0.0
  0
LINE
  5
348
330
E7
100
AcDbEntity
  8
LAYER0016
 62
     8
100
AcDbLine
 10
287.5000000000005
 20
800.014945652174
 30
0.0
 11
437.5000000000005
 21
800.014945652174
 31
0.0
  0
LINE
  5
349
330
E7
100
AcDbEntity
  8
LAYER0016
 62
     8
100
AcDbLine
 10
287.5000000000005
 20
1094.014945652174
 30
0.0
 11
437.5000000000005
 21
1094.014945652174
 31
0.0
  0
LINE
  5
34A
330
E7
100
AcDbEntity
  8
LAYER0016
 62
     8
100
AcDbLine
 10
197.4523027086923
 20
1204.014945652174
 30
0.0
 11
437.5000000000005
 21
1204.014945652174
 31
0.0
  0
LINE
  5
34B
330
E7
100
AcDbEntity
  8
LAYER0016
 62
     8
100
AcDbLine
 10
422.5000000000005
 20
1094.014945652174
 30
0.0
 11
422.5000000000005
 21
1204.014945652174
 31
0.0
  0
LINE
  5
34C
330
E7
100
AcDbEntity
  8
LAYER0016
 62
     8
100
AcDbLine
 10
422.5000000000005
 20
631.3149732515376
 30
0.0
 11
422.5000000000005
 21
800.014945652174
 31
0.0
  0
INSERT
  5
34D
330
E7
100
AcDbEntity
  8
LAYER0016
 62
     8
100
AcDbBlockReference
  2
_OPEN30
 10
422.5000000000005
 20
631.3149732515376
 30
0.0
 41
29.99997611445993
 42
30.00008592479957
 50
270.0
  0
INSERT
  5
34E
330
E7
100
AcDbEntity
  8
LAYER0016
 62
     8
100
AcDbBlockReference
  2
_OPEN30
 10
422.5000000000005
 20
800.014945652174
 30
0.0
 41
29.99997611445993
 42
30.00008592479957
 50
90.0
  0
LINE
  5
34F
330
E7
100
AcDbEntity
  8
LAYER0016
 62
     8
100
AcDbLine
 10
422.5000000000005
 20
800.014945652174
 30
0.0
 11
422.5000000000005
 21
1094.014945652174
 31
0.0
  0
INSERT
  5
350
330
E7
100
AcDbEntity
  8
LAYER0016
 62
     8
100
AcDbBlockReference
  2
_OPEN30
 10
422.5000000000005
 20
800.014945652174
 30
0.0
 41
29.99997611445993
 42
30.00008592479957
 50
270.0
  0
INSERT
  5
351
330
E7
100
AcDbEntity
  8
LAYER0016
 62
     8
100
AcDbBlockReference
  2
_OPEN30
 10
422.5000000000005
 20
1094.014945652174
 30
0.0
 41
29.99997611445993
 42
30.00008592479957
 50
90.0
  0
LINE
  5
352
330
E7
100
AcDbEntity
  8
LAYER0016
 62
     8
100
AcDbLine
 10
422.5000000000005
 20
1370.992695652174
 30
0.0
 11
422.5000000000005
 21
1204.014945652174
 31
0.0
  0
INSERT
  5
353
330
E7
100
AcDbEntity
  8
LAYER0016
 62
     8
100
AcDbBlockReference
  2
_OPEN30
 10
422.5000000000005
 20
1204.014945652174
 30
0.0
 41
29.99997611445993
 42
30.00008592479957
 50
270.0
  0
TEXT
  5
354
330
E7
100
AcDbEntity
  8
LAYER0016
 62
     7
100
AcDbText
 10
407.5000000000005
 20
697.6649594518558
 30
0.0
 40
45.0
  1
G
 50
90.0
 41
0.9333333333333334
  7
FDASTYLE0
 72
     5
 11
407.5000000000005
 21
733.6649594518558
 31
0.0
100
AcDbText
  0
TEXT
  5
355
330
E7
100
AcDbEntity
  8
LAYER0016
 62
     7
100
AcDbText
 10
407.5000000000005
 20
929.0149456521739
 30
0.0
 40
45.0
  1
A
 50
90.0
 41
0.988235294117647
  7
FDASTYLE0
 72
     5
 11
407.5000000000005
 21
965.0149456521739
 31
0.0
100
AcDbText
  0
TEXT
  5
356
330
E7
100
AcDbEntity
  8
LAYER0016
 62
     7
100
AcDbText
 10
407.5000000000005
 20
1247.992695652174
 30
0.0
 40
45.0
  1
110
 50
90.0
 41
0.8842105263157896
  7
FDASTYLE0
 72
     5
 11
407.5000000000005
 21
1355.992695652174
 31
0.0
100
AcDbText
  0
ENDBLK
  5
E9
330
E7
100
AcDbEntity
  8
0
100
AcDbBlockEnd
  0
BLOCK
  5
EB
330
EA
100
AcDbEntity
  8
0
100
AcDbBlockBegin
  2
DA_IMAGEDIMGROUP_9
 70
     0
 71
     0
 10
0.0
 20
0.0
 30
0.0
  3
DA_IMAGEDIMGROUP_9
  1

  0
LINE
  5
357
330
EA
100
AcDbEntity
  8
LAYER0016
 62
     8
100
AcDbLine
 10
60.4795829866639
 20
631.3149732515376
 30
0.0
 11
587.5000000000005
 21
631.3149732515376
 31
0.0
  0
LINE
  5
358
330
EA
100
AcDbEntity
  8
LAYER0016
 62
     8
100
AcDbLine
 10
197.4523027086923
 20
1204.014945652174
 30
0.0
 11
587.5000000000005
 21
1204.014945652174
 31
0.0
  0
LINE
  5
359
330
EA
100
AcDbEntity
  8
LAYER0016
 62
     8
100
AcDbLine
 10
572.5000000000005
 20
631.3149732515376
 30
0.0
 11
572.5000000000005
 21
1204.014945652174
 31
0.0
  0
INSERT
  5
35A
330
EA
100
AcDbEntity
  8
LAYER0016
 62
     8
100
AcDbBlockReference
  2
_OPEN30
 10
572.5000000000005
 20
631.3149732515376
 30
0.0
 41
29.99997611445993
 42
30.00008592479957
 50
270.0
  0
INSERT
  5
35B
330
EA
100
AcDbEntity
  8
LAYER0016
 62
     8
100
AcDbBlockReference
  2
_OPEN30
 10
572.5000000000005
 20
1204.014945652174
 30
0.0
 41
29.99997611445993
 42
30.00008592479957
 50
90.0
  0
TEXT
  5
35C
330
EA
100
AcDbEntity
  8
LAYER0016
 62
     7
100
AcDbText
 10
557.5000000000005
 20
899.6649594518557
 30
0.0
 40
45.0
  1
H
 50
90.0
 41
0.9333333333333334
  7
FDASTYLE0
 72
     5
 11
557.5000000000005
 21
935.6649594518557
 31
0.0
100
AcDbText
  0
ENDBLK
  5
EC
330
EA
100
AcDbEntity
  8
0
100
AcDbBlockEnd
  0
BLOCK
  5
EE
330
ED
100
AcDbEntity
  8
0
100
AcDbBlockBegin
  2
GROUP_45
 70
     0
 71
     0
 10
0.0
 20
0.0
 30
0.0
  3
GROUP_45
  1

  0
LINE
  5
35D
330
ED
100
AcDbEntity
  8
0
  6
CENTER
 62
     9
100
AcDbLine
 10
-1027.736012081074
 20
391.9006759192949
 30
0.0
 11
-1237.685479141321
 21
391.9006759192949
 31
0.0
  0
LINE
  5
35E
330
ED
100
AcDbEntity
  8
0
  6
CENTER
 62
     9
100
AcDbLine
 10
-1027.276382018446
 20
437.9017579223793
 30
0.0
 11
-1027.276382018446
 21
457.9017725851214
 31
0.0
  0
LINE
  5
35F
330
ED
100
AcDbEntity
  8
0
  6
CENTER
 62
     9
100
AcDbLine
 10
-1037.276366461634
 20
447.9017423655674
 30
0.0
 11
-1017.276397575258
 21
447.9017423655674
 31
0.0
  0
LINE
  5
360
330
ED
100
AcDbEntity
  8
0
  6
CENTER
 62
     9
100
AcDbLine
 10
-901.2763857735386
 20
437.9017579223793
 30
0.0
 11
-901.2763857735386
 21
457.9017725851214
 31
0.0
  0
LINE
  5
361
330
ED
100
AcDbEntity
  8
0
  6
CENTER
 62
     9
100
AcDbLine
 10
-911.2763702167267
 20
321.9017461206603
 30
0.0
 11
-891.2764013303504
 21
321.9017461206603
 31
0.0
  0
LINE
  5
362
330
ED
100
AcDbEntity
  8
0
  6
CENTER
 62
     9
100
AcDbLine
 10
-901.2763857735386
 20
311.901738789289
 30
0.0
 11
-901.2763857735386
 21
331.9017534520311
 31
0.0
  0
LINE
  5
363
330
ED
100
AcDbEntity
  8
0
  6
CENTER
 62
     9
100
AcDbLine
 10
-1037.276366461634
 20
321.9017461206603
 30
0.0
 11
-1017.276397575258
 21
321.9017461206603
 31
0.0
  0
LINE
  5
364
330
ED
100
AcDbEntity
  8
0
  6
CENTER
 62
     9
100
AcDbLine
 10
-1027.276382018446
 20
311.901738789289
 30
0.0
 11
-1027.276382018446
 21
331.9017534520311
 31
0.0
  0
LINE
  5
365
330
ED
100
AcDbEntity
  8
0
  6
CENTER
 62
     9
100
AcDbLine
 10
-1010.906952262324
 20
400.9017742838538
 30
0.0
 11
-873.2764014197574
 21
400.9017742838538
 31
0.0
  0
LINE
  5
366
330
ED
100
AcDbEntity
  8
0
  6
CENTER
 62
     9
100
AcDbLine
 10
-911.2763702167267
 20
447.9017423655674
 30
0.0
 11
-891.2764013303504
 21
447.9017423655674
 31
0.0
  0
LINE
  5
367
330
ED
100
AcDbEntity
  8
0
  6
CENTER
 62
     9
100
AcDbLine
 10
-901.2763857735386
 20
437.9017579223793
 30
0.0
 11
-901.2763857735386
 21
457.9017725851214
 31
0.0
  0
LINE
  5
368
330
ED
100
AcDbEntity
  8
0
  6
CENTER
 62
     9
100
AcDbLine
 10
-948.2763996316182
 20
573.8017782084827
 30
0.0
 11
-948.2763996316182
 21
247.9017742838543
 31
0.0
  0
LINE
  5
369
330
ED
100
AcDbEntity
  8
0
  6
CENTER
 62
     9
100
AcDbLine
 10
-911.2764159930925
 20
447.9017423655674
 30
0.0
 11
-891.2764013303504
 21
447.9017423655674
 31
0.0
  0
LINE
  5
36A
330
ED
100
AcDbEntity
  8
0
  6
CENTER
 62
     9
100
AcDbLine
 10
-1216.15829940569
 20
309.902100111958
 30
0.0
 11
-1239.97079940569
 21
309.902100111958
 31
0.0
  0
LINE
  5
36B
330
ED
100
AcDbEntity
  8
0
  6
CENTER
 62
     9
100
AcDbLine
 10
-1190.276487786885
 20
339.9019593562701
 30
0.0
 11
-1190.276487786885
 21
284.6740754599258
 31
0.0
  0
LINE
  5
36C
330
ED
100
AcDbEntity
  8
0
  6
CENTER
 62
     9
100
AcDbLine
 10
-1222.599381661868
 20
287.1229861281425
 30
0.0
 11
-1227.217863294256
 21
298.8477530154759
 31
0.0
  0
LINE
  5
36D
330
ED
100
AcDbEntity
  8
0
 62
     7
100
AcDbLine
 10
-1040.276366372227
 20
447.9017423655674
 30
0.0
 11
-1040.276366372227
 21
321.8899129300947
 31
0.0
  0
LINE
  5
36E
330
ED
100
AcDbEntity
  8
0
 62
     7
100
AcDbLine
 10
-1027.276382018446
 20
308.9017388786959
 30
0.0
 11
-901.2763857735386
 21
308.9017388786959
 31
0.0
  0
LINE
  5
36F
330
ED
100
AcDbEntity
  8
0
 62
     7
100
AcDbLine
 10
-1027.276382018446
 20
460.9017724957145
 30
0.0
 11
-901.2763857735386
 21
460.9017724957145
 31
0.0
  0
LINE
  5
370
330
ED
100
AcDbEntity
  8
0
 62
     7
100
AcDbLine
 10
-888.2764014197574
 20
447.9017423655674
 30
0.0
 11
-888.2764014197574
 21
321.9017232324771
 31
0.0
  0
LINE
  5
371
330
ED
100
AcDbEntity
  8
0
 62
     7
100
AcDbLine
 10
-1050.276383093027
 20
346.9017030028693
 30
0.0
 11
-1079.276534816633
 21
346.9017302341209
 31
0.0
  0
LINE
  5
372
330
ED
100
AcDbEntity
  8
0
 62
     7
100
AcDbLine
 10
-1050.267738402216
 20
436.9017689771312
 30
0.0
 11
-1079.276450306231
 21
436.9017962164211
 31
0.0
  0
ARC
  5
373
330
ED
100
AcDbEntity
  8
0
 62
     7
100
AcDbCircle
 10
-1050.276396591781
 20
446.9018034305242
 30
0.0
 40
9.999999463558213
100
AcDbArc
 50
269.999944675244
 51
0.0000086514215241
  0
ARC
  5
374
330
ED
100
AcDbEntity
  8
0
 62
     7
100
AcDbCircle
 10
-1050.276396591781
 20
336.9017456736254
 30
0.0
 40
9.999999463558213
100
AcDbArc
 50
0.0000086514211983
 51
89.9999496842005
  0
CIRCLE
  5
375
330
ED
100
AcDbEntity
  8
0
 62
     7
100
AcDbCircle
 10
-948.2763996316182
 20
400.9017742838538
 30
0.0
 40
42.49996821582412
  0
ARC
  5
376
330
ED
100
AcDbEntity
  8
0
 62
     7
100
AcDbCircle
 10
-1050.276396591781
 20
446.9017576541584
 30
0.0
 40
9.999999463558213
100
AcDbArc
 50
269.999944675244
 51
0.0000086514215241
  0
ARC
  5
377
330
ED
100
AcDbEntity
  8
0
 62
     7
100
AcDbCircle
 10
-1050.276396591781
 20
336.9017227854423
 30
0.0
 40
9.999999463558213
100
AcDbArc
 50
359.9999949910431
 51
89.99994968420049
  0
ARC
  5
378
330
ED
100
AcDbEntity
  8
0
 62
     7
100
AcDbCircle
 10
-1027.276382018446
 20
447.9017423655674
 30
0.0
 40
13.00000008940696
100
AcDbArc
 50
90.00000432571393
 51
180.0000050089569
  0
ARC
  5
379
330
ED
100
AcDbEntity
  8
0
 62
     7
100
AcDbCircle
 10
-1027.276382018446
 20
321.9017232324771
 30
0.0
 40
13.00000008940696
100
AcDbArc
 50
179.9999949910431
 51
269.999995674286
  0
ARC
  5
37A
330
ED
100
AcDbEntity
  8
0
 62
     7
100
AcDbCircle
 10
-901.2763857735386
 20
447.9017423655674
 30
0.0
 40
13.00000008940696
100
AcDbArc
 50
359.9999949910431
 51
90.00000432571397
  0
ARC
  5
37B
330
ED
100
AcDbEntity
  8
0
 62
     7
100
AcDbCircle
 10
-901.2763857735386
 20
321.9017232324771
 30
0.0
 40
13.00000008940696
100
AcDbArc
 50
269.999999316757
 51
0.0000086514213535
  0
ARC
  5
37C
330
ED
100
AcDbEntity
  8
0
 62
     7
100
AcDbCircle
 10
-1027.276382018446
 20
447.9017423655674
 30
0.0
 40
13.00000008940696
100
AcDbArc
 50
90.00001115590307
 51
180.0000043257107
  0
POINT
  5
37D
330
ED
100
AcDbEntity
  8
0
  6
CONTINUOUS
 62
     7
100
AcDbPoint
 10
-1116.27648617756
 20
391.9006759192949
 30
0.0
  0
LINE
  5
37E
330
ED
100
AcDbEntity
  8
0
 62
     7
100
AcDbLine
 10
-1101.276486624595
 20
434.9006593790065
 30
0.0
 11
-1101.276486624595
 21
348.9006466832176
 31
0.0
  0
LINE
  5
37F
330
ED
100
AcDbEntity
  8
0
 62
     7
100
AcDbLine
 10
-1111.276493955966
 20
442.921777304021
 30
0.0
 11
-1111.276493955966
 21
341.067326298993
 31
0.0
  0
LINE
  5
380
330
ED
100
AcDbEntity
  8
0
 62
     7
100
AcDbLine
 10
-1116.27648617756
 20
443.9006591107856
 30
0.0
 11
-1116.27648617756
 21
339.9006469514385
 31
0.0
  0
LINE
  5
381
330
ED
100
AcDbEntity
  8
0
 62
     7
100
AcDbLine
 10
-1079.276479650851
 20
346.9006543722165
 30
0.0
 11
-1082.276502449628
 21
346.9006543722165
 31
0.0
  0
LINE
  5
382
330
ED
100
AcDbEntity
  8
0
 62
     7
100
AcDbLine
 10
-1079.276479650851
 20
436.9006745781904
 30
0.0
 11
-1082.276502449628
 21
436.9006745781904
 31
0.0
  0
LINE
  5
383
330
ED
100
AcDbEntity
  8
0
 62
     7
100
AcDbLine
 10
-1085.740606045119
 20
348.9006466832176
 30
0.0
 11
-1100.509022963385
 21
348.9006466832176
 31
0.0
  0
LINE
  5
384
330
ED
100
AcDbEntity
  8
0
 62
     7
100
AcDbLine
 10
-1085.740606045119
 20
434.9006593790065
 30
0.0
 11
-1100.509022963385
 21
434.9006593790065
 31
0.0
  0
LINE
  5
385
330
ED
100
AcDbEntity
  8
0
 62
     7
100
AcDbLine
 10
-1112.043980505358
 20
443.9006591107856
 30
0.0
 11
-1116.27648617756
 21
443.9006591107856
 31
0.0
  0
LINE
  5
386
330
ED
100
AcDbEntity
  8
0
 62
     7
100
AcDbLine
 10
-1112.043980505358
 20
339.9006469514385
 30
0.0
 11
-1116.27648617756
 21
339.9006469514385
 31
0.0
  0
LINE
  5
387
330
ED
100
AcDbEntity
  8
0
 62
     7
100
AcDbLine
 10
-1101.846917211698
 20
348.3872687420513
 30
0.0
 11
-1110.706017547654
 21
340.4140780134443
 31
0.0
  0
LINE
  5
388
330
ED
100
AcDbEntity
  8
0
 62
     7
100
AcDbLine
 10
-1101.846971173763
 20
435.4140319995439
 30
0.0
 11
-1110.706054497068
 21
443.3872074167633
 31
0.0
  0
ARC
  5
389
330
ED
100
AcDbEntity
  8
0
 62
     7
100
AcDbCircle
 10
-1082.276502449628
 20
348.9006466832176
 30
0.0
 40
2.0
100
AcDbArc
 50
209.9998904354362
 51
270.0000025044818
  0
ARC
  5
38A
330
ED
100
AcDbEntity
  8
0
 62
     7
100
AcDbCircle
 10
-1085.740606045119
 20
346.9006543722165
 30
0.0
 40
2.0
100
AcDbArc
 50
30.00000265605915
 51
89.99999749552154
  0
ARC
  5
38B
330
ED
100
AcDbEntity
  8
0
 62
     7
100
AcDbCircle
 10
-1082.276502449628
 20
434.9006593790065
 30
0.0
 40
2.0
100
AcDbArc
 50
89.99999749551829
 51
149.9998256392886
  0
ARC
  5
38C
330
ED
100
AcDbEntity
  8
0
 62
     7
100
AcDbCircle
 10
-1085.740606045119
 20
436.9006745781904
 30
0.0
 40
2.0
100
AcDbArc
 50
270.0000025044785
 51
329.9999973439408
  0
ARC
  5
38D
330
ED
100
AcDbEntity
  8
0
 62
     7
100
AcDbCircle
 10
-1100.509022963385
 20
436.9006745781904
 30
0.0
 40
2.0
100
AcDbArc
 50
228.0127874498491
 51
270.0000025044785
  0
ARC
  5
38E
330
ED
100
AcDbEntity
  8
0
 62
     7
100
AcDbCircle
 10
-1100.509022963385
 20
346.9006543722165
 30
0.0
 40
2.0
100
AcDbArc
 50
89.99999749552154
 51
131.9872125501509
  0
ARC
  5
38F
330
ED
100
AcDbEntity
  8
0
 62
     7
100
AcDbCircle
 10
-1112.043980505358
 20
441.9006896879674
 30
0.0
 40
2.0
100
AcDbArc
 50
48.01278244089053
 51
89.99999749551829
  0
ARC
  5
390
330
ED
100
AcDbEntity
  8
0
 62
     7
100
AcDbCircle
 10
-1112.043980505358
 20
341.9006621506222
 30
0.0
 40
2.0
100
AcDbArc
 50
270.0000025044818
 51
311.9872175591095
  0
POINT
  5
391
330
ED
100
AcDbEntity
  8
0
  6
CONTINUOUS
 62
     7
100
AcDbPoint
 10
-1225.277211536263
 20
391.9006759192949
 30
0.0
  0
LINE
  5
392
330
ED
100
AcDbEntity
  8
0
 62
     7
100
AcDbLine
 10
-1214.27648707163
 20
334.9019593562706
 30
0.0
 11
-1214.27648707163
 21
451.4006588872682
 31
0.0
  0
LINE
  5
393
330
ED
100
AcDbEntity
  8
0
 62
     7
100
AcDbLine
 10
-1225.277211536263
 20
346.9006772603992
 30
0.0
 11
-1225.277211536263
 21
436.9005830254588
 31
0.0
  0
LINE
  5
394
330
ED
100
AcDbEntity
  8
0
 62
     7
100
AcDbLine
 10
-1221.276963700157
 20
346.9006772603992
 30
0.0
 11
-1225.276959766251
 21
346.9006772603992
 31
0.0
  0
LINE
  5
395
330
ED
100
AcDbEntity
  8
0
 62
     7
100
AcDbLine
 10
-1221.277204026078
 20
339.1506698619731
 30
0.0
 11
-1221.277204026078
 21
444.6506590884338
 31
0.0
  0
LINE
  5
396
330
ED
100
AcDbEntity
  8
0
 62
     7
100
AcDbLine
 10
-1225.277211536263
 20
436.9005830254588
 30
0.0
 11
-1221.277204026078
 21
436.9005830254588
 31
0.0
  0
LINE
  5
397
330
ED
100
AcDbEntity
  8
0
 62
     7
100
AcDbLine
 10
-1214.276475627538
 20
444.6506590884338
 30
0.0
 11
-1221.277204026078
 21
444.6506590884338
 31
0.0
  0
LINE
  5
398
330
ED
100
AcDbEntity
  8
0
 62
     7
100
AcDbLine
 10
-1221.276711930145
 20
339.1506698619731
 30
0.0
 11
-1214.276006419788
 21
339.1506698619731
 31
0.0
  0
LINE
  5
399
330
ED
100
AcDbEntity
  8
0
 62
     7
100
AcDbLine
 10
-1214.276475627538
 20
451.4006588872682
 30
0.0
 11
-1116.276463289377
 21
451.4006588872682
 31
0.0
  0
LINE
  5
39A
330
ED
100
AcDbEntity
  8
0
 62
     7
100
AcDbLine
 10
-1116.27648617756
 20
334.9019593562706
 30
0.0
 11
-1116.27648617756
 21
451.4006588872682
 31
0.0
  0
LINE
  5
39B
330
ED
100
AcDbEntity
  8
0
 62
     7
100
AcDbLine
 10
-1214.27648707163
 20
334.9019593562706
 30
0.0
 11
-1116.27648617756
 21
334.9019593562706
 31
0.0
  0
CIRCLE
  5
39C
330
ED
100
AcDbEntity
  8
0
 62
     7
100
AcDbCircle
 10
-948.2763996316182
 20
400.9017742838538
 30
0.0
 40
22.49999827891596
  0
POINT
  5
39D
330
ED
100
AcDbEntity
  8
0
  6
CONTINUOUS
 62
     2
100
AcDbPoint
 10
-1227.776448209401
 20
309.9020390768018
 30
0.0
  0
LINE
  5
39E
330
ED
100
AcDbEntity
  8
0
 62
     2
100
AcDbLine
 10
-1149.203923184987
 20
331.9019646902051
 30
0.0
 11
-1222.77646346819
 21
331.9019646902051
 31
0.0
  0
LINE
  5
39F
330
ED
100
AcDbEntity
  8
0
 62
     2
100
AcDbLine
 10
-1227.77646346819
 20
292.2207799215283
 30
0.0
 11
-1227.77646346819
 21
326.901970412251
 31
0.0
  0
LINE
  5
3A0
330
ED
100
AcDbEntity
  8
0
 62
     2
100
AcDbLine
 10
-1143.279680342446
 20
325.5047652006523
 30
0.0
 11
-1144.551909797193
 21
328.7345078522902
 31
0.0
  0
LINE
  5
3A1
330
ED
100
AcDbEntity
  8
0
 62
     2
100
AcDbLine
 10
-1231.84218784459
 20
287.394912129539
 30
0.0
 11
-1136.939933464555
 21
324.7776868096888
 31
0.0
  0
LINE
  5
3A2
330
ED
100
AcDbEntity
  8
0
 62
     2
100
AcDbLine
 10
-1140.661529307706
 20
306.5946638502654
 30
0.0
 11
-1140.661496193111
 21
323.3115961469856
 31
0.0
  0
LINE
  5
3A3
330
ED
100
AcDbEntity
  8
0
 62
     2
100
AcDbLine
 10
-1136.939919267498
 20
324.7776924020253
 30
0.0
 11
-1138.049505985867
 21
327.5945587770956
 31
0.0
  0
LINE
  5
3A4
330
ED
100
AcDbEntity
  8
0
 62
     2
100
AcDbLine
 10
-1232.94168598747
 20
290.1861670146772
 30
0.0
 11
-1138.039431607434
 21
327.5689416948261
 31
0.0
  0
LINE
  5
3A5
330
ED
100
AcDbEntity
  8
0
 62
     2
100
AcDbLine
 10
-1213.276371915456
 20
334.9019593562706
 30
0.0
 11
-1213.276371915456
 21
331.9019656438794
 31
0.0
  0
LINE
  5
3A6
330
ED
100
AcDbEntity
  8
0
 62
     2
100
AcDbLine
 10
-1167.276603658315
 20
334.9019593562706
 30
0.0
 11
-1167.276603658315
 21
331.9019656438794
 31
0.0
  0
ARC
  5
3A7
330
ED
100
AcDbEntity
  8
0
 62
     2
100
AcDbCircle
 10
-1222.776387174245
 20
326.9019646902051
 30
0.0
 40
5.0
100
AcDbArc
 50
90.00009061369796
 51
179.9998540615587
  0
ARC
  5
3A8
330
ED
100
AcDbEntity
  8
0
 62
     2
100
AcDbCircle
 10
-1149.203923184987
 20
326.9019761342969
 30
0.0
 40
5.0
100
AcDbArc
 50
21.49994220024395
 51
89.99985474478871
  0
ARC
  5
3A9
330
ED
100
AcDbEntity
  8
0
 62
     2
100
AcDbCircle
 10
-1155.661488492604
 20
306.5946202535596
 30
0.0
 40
15.0
100
AcDbArc
 50
273.1387336052466
 51
359.9997634478477
  0
LINE
  5
3AA
330
ED
100
AcDbEntity
  8
0
 62
     2
100
AcDbLine
 10
-1231.842173647533
 20
287.3949177218764
 30
0.0
 11
-1232.941671790413
 21
290.1861726070137
 31
0.0
  0
LINE
  5
3AB
330
ED
100
AcDbEntity
  8
0
 62
     2
100
AcDbLine
 10
-1154.840298348845
 20
291.6171849846704
 30
0.0
 11
-1225.471877670038
 21
287.7441699482559
 31
0.0
  0
ARC
  5
3AC
330
ED
100
AcDbEntity
  8
0
 62
     2
100
AcDbCircle
 10
-1225.636189420339
 20
290.7396245260205
 30
0.0
 40
3.0
100
AcDbArc
 50
236.0772746757873
 51
273.1386789637353
  0
ARC
  5
3AD
330
ED
100
AcDbEntity
  8
0
 62
     2
100
AcDbCircle
 10
-1228.42653365862
 20
286.5906834859815
 30
0.0
 40
2.0
100
AcDbArc
 50
56.07725577903656
 51
111.4992138744742
  0
ENDBLK
  5
EF
330
ED
100
AcDbEntity
  8
0
100
AcDbBlockEnd
  0
BLOCK
  5
F1
330
F0
100
AcDbEntity
  8
0
100
AcDbBlockBegin
  2
GROUP_46
 70
     0
 71
     0
 10
0.0
 20
0.0
 30
0.0
  3
GROUP_46
  1

  0
LINE
  5
3AF
330
F0
100
AcDbEntity
  8
0
 62
     7
100
AcDbLine
 10
-944.2764150692206
 20
412.7445014155754
 30
0.0
 11
-944.2764150692206
 21
416.7017613705081
 31
0.0
  0
LINE
  5
3B0
330
F0
100
AcDbEntity
  8
0
 62
     7
100
AcDbLine
 10
-952.2763841940159
 20
412.7445014155754
 30
0.0
 11
-952.2763841940159
 21
416.7017613705081
 31
0.0
  0
LINE
  5
3B1
330
F0
100
AcDbEntity
  8
0
 62
     7
100
AcDbLine
 10
-944.2764150692206
 20
416.7017613705081
 30
0.0
 11
-952.2763841940159
 21
416.7017613705081
 31
0.0
  0
ARC
  5
3B2
330
F0
100
AcDbEntity
  8
0
 62
     7
100
AcDbCircle
 10
-948.2763996316182
 20
400.9017742838538
 30
0.0
 40
12.49999932199719
100
AcDbArc
 50
108.6629261393462
 51
71.33707249416312
  0
ENDBLK
  5
F2
330
F0
100
AcDbEntity
  8
0
100
AcDbBlockEnd
  0
BLOCK
  5
F4
330
F3
100
AcDbEntity
  8
0
100
AcDbBlockBegin
  2
GROUP_47
 70
     0
 71
     0
 10
0.0
 20
0.0
 30
0.0
  3
GROUP_47
  1

  0
TEXT
  5
3B4
330
F3
100
AcDbEntity
  8
LAYER0064
 62
     7
100
AcDbText
 10
-745.7763996316332
 20
115.9017742838538
 30
0.0
 40
75.0
  1
S型
 41
0.9306008383791335
  7
FDASTYLE1
 72
     5
 11
-595.7763996316332
 21
115.9017742838538
 31
0.0
100
AcDbText
  0
LINE
  5
3B5
330
F3
100
AcDbEntity
  8
LAYER0064
 62
     2
100
AcDbLine
 10
-768.2763996316332
 20
100.9017742838538
 30
0.0
 11
-573.2763996316332
 21
100.9017742838538
 31
0.0
  0
LINE
  5
3B6
330
F3
100
AcDbEntity
  8
LAYER0064
 62
     2
100
AcDbLine
 10
-573.2763996316332
 20
100.9017742838538
 30
0.0
 11
-573.2763996316332
 21
205.9017742838538
 31
0.0
  0
LINE
  5
3B7
330
F3
100
AcDbEntity
  8
LAYER0064
 62
     2
100
AcDbLine
 10
-768.2763996316332
 20
205.9017742838538
 30
0.0
 11
-573.2763996316332
 21
205.9017742838538
 31
0.0
  0
LINE
  5
3B8
330
F3
100
AcDbEntity
  8
LAYER0064
 62
     2
100
AcDbLine
 10
-768.2763996316332
 20
100.9017742838538
 30
0.0
 11
-768.2763996316332
 21
205.9017742838538
 31
0.0
  0
ENDBLK
  5
F5
330
F3
100
AcDbEntity
  8
0
100
AcDbBlockEnd
  0
BLOCK
  5
F7
330
F6
100
AcDbEntity
  8
0
100
AcDbBlockBegin
  2
DA_IMAGEDIMGROUP_10
 70
     0
 71
     0
 10
0.0
 20
0.0
 30
0.0
  3
DA_IMAGEDIMGROUP_10
  1

  0
LINE
  5
3B9
330
F6
100
AcDbEntity
  8
LAYER0016
 62
     8
100
AcDbLine
 10
-1360.204289608679
 20
239.1113971533134
 30
0.0
 11
-1435.204289608779
 21
109.2075865857054
 31
0.0
  0
LINE
  5
3BA
330
F6
100
AcDbEntity
  8
LAYER0016
 62
     8
100
AcDbLine
 10
-1500.500401621636
 20
320.1113951903143
 30
0.0
 11
-1575.500401621701
 21
190.2075846227677
 31
0.0
  0
LINE
  5
3BB
330
F6
100
AcDbEntity
  8
LAYER0016
 62
     8
100
AcDbLine
 10
-1427.704289608769
 20
122.1979676424662
 30
0.0
 11
-1568.000401621691
 21
203.1979656795285
 31
0.0
  0
INSERT
  5
3BC
330
F6
100
AcDbEntity
  8
LAYER0016
 62
     8
100
AcDbBlockReference
  2
_OPEN30
 10
-1427.704289608769
 20
122.1979676424662
 30
0.0
 41
29.99997611445993
 42
30.00008592479957
 50
329.9999999999558
  0
INSERT
  5
3BD
330
F6
100
AcDbEntity
  8
LAYER0016
 62
     8
100
AcDbBlockReference
  2
_OPEN30
 10
-1568.000401621691
 20
203.1979656795285
 30
0.0
 41
29.99997611445993
 42
30.00008592479957
 50
149.9999999999559
  0
TEXT
  5
3BE
330
F6
100
AcDbEntity
  8
LAYER0016
 62
     7
100
AcDbText
 10
-1537.117717419559
 20
202.6883477177942
 30
0.0
 40
45.0
  1
162
 50
329.9999999999558
 41
0.8842105263157897
  7
FDASTYLE0
 72
     5
 11
-1443.586973810881
 21
148.6883477177221
 31
0.0
100
AcDbText
  0
ENDBLK
  5
F8
330
F6
100
AcDbEntity
  8
0
100
AcDbBlockEnd
  0
BLOCK
  5
FA
330
F9
100
AcDbEntity
  8
0
100
AcDbBlockBegin
  2
GROUP_48
 70
     0
 71
     0
 10
0.0
 20
0.0
 30
0.0
  3
GROUP_48
  1

  0
TEXT
  5
3BF
330
F9
100
AcDbEntity
  8
LAYER0064
 62
     7
100
AcDbText
 10
-1596.276399631618
 20
-168.0780660056809
 30
0.0
 40
56.25
  1
M矢視図
 41
0.7977640247554402
  7
FDASTYLE1
 72
     5
 11
-1371.276399631618
 21
-168.0780660056809
 31
0.0
100
AcDbText
  0
LINE
  5
3C0
330
F9
100
AcDbEntity
  8
LAYER0064
 62
     2
100
AcDbLine
 10
-1596.276399631618
 20
-187.7655660056809
 30
0.0
 11
-1371.276399631618
 21
-187.7655660056809
 31
0.0
  0
LINE
  5
3C1
330
F9
100
AcDbEntity
  8
LAYER0064
 62
     2
100
AcDbLine
 10
-1596.276399631618
 20
-179.3280660056809
 30
0.0
 11
-1371.276399631618
 21
-179.3280660056809
 31
0.0
  0
ENDBLK
  5
FB
330
F9
100
AcDbEntity
  8
0
100
AcDbBlockEnd
  0
BLOCK
  5
FD
330
FC
100
AcDbEntity
  8
0
100
AcDbBlockBegin
  2
DA_IMAGEDIMGROUP_11
 70
     0
 71
     0
 10
0.0
 20
0.0
 30
0.0
  3
DA_IMAGEDIMGROUP_11
  1

  0
LINE
  5
3C2
330
FC
100
AcDbEntity
  8
LAYER0016
 62
     8
100
AcDbLine
 10
-252.8664902503369
 20
626.3150551757053
 30
0.0
 11
-252.8664902503369
 21
461.8149678698046
 31
0.0
  0
LINE
  5
3C3
330
FC
100
AcDbEntity
  8
LAYER0016
 62
     8
100
AcDbLine
 10
272.5000000000005
 20
785.014945652174
 30
0.0
 11
272.5000000000005
 21
461.8149678698046
 31
0.0
  0
LINE
  5
3C4
330
FC
100
AcDbEntity
  8
LAYER0016
 62
     8
100
AcDbLine
 10
-252.8664902503369
 20
476.8149678698046
 30
0.0
 11
272.5000000000005
 21
476.8149678698046
 31
0.0
  0
INSERT
  5
3C5
330
FC
100
AcDbEntity
  8
LAYER0016
 62
     8
100
AcDbBlockReference
  2
_OPEN30
 10
-252.8664902503369
 20
476.8149678698046
 30
0.0
 41
29.99997611445993
 42
30.00008592479957
 50
180.0
  0
INSERT
  5
3C6
330
FC
100
AcDbEntity
  8
LAYER0016
 62
     8
100
AcDbBlockReference
  2
_OPEN30
 10
272.5000000000005
 20
476.8149678698046
 30
0.0
 41
29.99997611445993
 42
30.00008592479957
 50
360.0
  0
TEXT
  5
3C7
330
FC
100
AcDbEntity
  8
LAYER0016
 62
     7
100
AcDbText
 10
-8.183245125168241
 20
491.8149678698046
 30
0.0
 40
45.0
  1
J
 41
1.4
  7
FDASTYLE0
 72
     5
 11
27.81675487483176
 21
491.8149678698046
 31
0.0
100
AcDbText
  0
ENDBLK
  5
FE
330
FC
100
AcDbEntity
  8
0
100
AcDbBlockEnd
  0
BLOCK
  5
100
330
FF
100
AcDbEntity
  8
0
100
AcDbBlockBegin
  2
DA_IMAGEDIMGROUP_12
 70
     0
 71
     0
 10
0.0
 20
0.0
 30
0.0
  3
DA_IMAGEDIMGROUP_12
  1

  0
LINE
  5
3C8
330
FF
100
AcDbEntity
  8
LAYER0016
 62
     8
100
AcDbLine
 10
-1345.776399631618
 20
-631.4675587227715
 30
0.0
 11
-1171.776399631618
 21
-631.4675587227715
 31
0.0
  0
LINE
  5
3C9
330
FF
100
AcDbEntity
  8
LAYER0016
 62
     8
100
AcDbLine
 10
-1321.776399631618
 20
-413.4674287227714
 30
0.0
 11
-1171.776399631618
 21
-413.4674287227714
 31
0.0
  0
LINE
  5
3CA
330
FF
100
AcDbEntity
  8
LAYER0016
 62
     8
100
AcDbLine
 10
-1186.776399631618
 20
-631.4675587227715
 30
0.0
 11
-1186.776399631618
 21
-593.4674287227714
 31
0.0
  0
LINE
  5
3CB
330
FF
100
AcDbEntity
  8
LAYER0016
 62
     8
100
AcDbLine
 10
-1321.776399631618
 20
-593.4674287227714
 30
0.0
 11
-1171.776399631618
 21
-593.4674287227714
 31
0.0
  0
LINE
  5
3CC
330
FF
100
AcDbEntity
  8
LAYER0016
 62
     8
100
AcDbLine
 10
-1186.776399631618
 20
-593.4674287227714
 30
0.0
 11
-1186.776399631618
 21
-413.4674287227714
 31
0.0
  0
INSERT
  5
3CD
330
FF
100
AcDbEntity
  8
LAYER0016
 62
     8
100
AcDbBlockReference
  2
_OPEN30
 10
-1186.776399631618
 20
-593.4674287227714
 30
0.0
 41
29.99997611445993
 42
30.00008592479957
 50
270.0
  0
INSERT
  5
3CE
330
FF
100
AcDbEntity
  8
LAYER0016
 62
     8
100
AcDbBlockReference
  2
_OPEN30
 10
-1186.776399631618
 20
-413.4674287227714
 30
0.0
 41
29.99997611445993
 42
30.00008592479957
 50
90.0
  0
LINE
  5
3CF
330
FF
100
AcDbEntity
  8
LAYER0016
 62
     8
100
AcDbLine
 10
-1186.776399631618
 20
-762.4453087227715
 30
0.0
 11
-1186.776399631618
 21
-631.4675587227715
 31
0.0
  0
INSERT
  5
3D0
330
FF
100
AcDbEntity
  8
LAYER0016
 62
     8
100
AcDbBlockReference
  2
_OPEN30
 10
-1186.776399631618
 20
-631.4675587227715
 30
0.0
 41
29.99997611445993
 42
30.00008592479957
 50
90.0
  0
TEXT
  5
3D1
330
FF
100
AcDbEntity
  8
LAYER0016
 62
     7
100
AcDbText
 10
-1201.776399631618
 20
-747.4453087227715
 30
0.0
 40
45.0
  1
38
 50
90.0
 41
0.9081081081081082
  7
FDASTYLE0
 72
     5
 11
-1201.776399631618
 21
-675.4453087227715
 31
0.0
100
AcDbText
  0
TEXT
  5
3D2
330
FF
100
AcDbEntity
  8
LAYER0016
 62
     7
100
AcDbText
 10
-1201.776399631618
 20
-521.4674287227714
 30
0.0
 40
45.0
  1
B
 50
90.0
 41
0.9333333333333334
  7
FDASTYLE0
 72
     5
 11
-1201.776399631618
 21
-485.4674287227714
 31
0.0
100
AcDbText
  0
ENDBLK
  5
101
330
FF
100
AcDbEntity
  8
0
100
AcDbBlockEnd
  0
BLOCK
  5
103
330
102
100
AcDbEntity
  8
0
100
AcDbBlockBegin
  2
DA_IMAGEDIMGROUP_13
 70
     0
 71
     0
 10
0.0
 20
0.0
 30
0.0
  3
DA_IMAGEDIMGROUP_13
  1

  0
LINE
  5
3D3
330
102
100
AcDbEntity
  8
LAYER0016
 62
     8
100
AcDbLine
 10
-487.9335389666234
 20
-597.8543053812123
 30
0.0
 11
-363.8247077297284
 21
-701.9927207745795
 31
0.0
  0
LINE
  5
3D4
330
102
100
AcDbEntity
  8
LAYER0016
 62
     8
100
AcDbLine
 10
-615.8465554777492
 20
-490.5238381219715
 30
0.0
 11
-487.9335389666235
 21
-597.8543053812124
 31
0.0
  0
INSERT
  5
3D5
330
102
100
AcDbEntity
  8
LAYER0016
 62
     8
100
AcDbBlockReference
  2
_OPEN30
 10
-487.9335389666235
 20
-597.8543053812124
 30
0.0
 41
29.99997611445993
 42
30.00008592479957
 50
320.0003411130455
  0
LINE
  5
3D6
330
102
100
AcDbEntity
  8
LAYER0016
 62
     8
100
AcDbLine
 10
-317.8618115314772
 20
-740.5597037142494
 30
0.0
 11
-363.8247077297284
 21
-701.9927207745795
 31
0.0
  0
INSERT
  5
3D7
330
102
100
AcDbEntity
  8
LAYER0016
 62
     8
100
AcDbBlockReference
  2
_OPEN30
 10
-363.8247077297284
 20
-701.9927207745795
 30
0.0
 41
29.99997611445993
 42
30.00008592479957
 50
140.0003411130455
  0
TEXT
  5
3D8
330
102
100
AcDbEntity
  8
LAYER0016
 62
     7
100
AcDbText
 10
-594.7140856932689
 20
-488.674859807326
 30
0.0
 40
45.0
  1
162
 50
320.0003411130454
 41
0.8842105263157896
  7
FDASTYLE0
 72
     5
 11
-511.9808725364168
 21
-558.0954290987319
 31
0.0
100
AcDbText
  0
ENDBLK
  5
104
330
102
100
AcDbEntity
  8
0
100
AcDbBlockEnd
  0
BLOCK
  5
106
330
105
100
AcDbEntity
  8
0
100
AcDbBlockBegin
  2
DA_IMAGEDIMGROUP_14
 70
     0
 71
     0
 10
0.0
 20
0.0
 30
0.0
  3
DA_IMAGEDIMGROUP_14
  1

  0
LINE
  5
3D9
330
105
100
AcDbEntity
  8
LAYER0016
 62
     8
100
AcDbLine
 10
-778.27639963155
 20
537.9017742838051
 30
0.0
 11
-578.2763996316346
 21
537.9017742838051
 31
0.0
  0
LINE
  5
3DA
330
105
100
AcDbEntity
  8
LAYER0016
 62
     8
100
AcDbLine
 10
-728.2763996316346
 20
277.9017742837889
 30
0.0
 11
-578.2763996316346
 21
277.9017742837889
 31
0.0
  0
LINE
  5
3DB
330
105
100
AcDbEntity
  8
LAYER0016
 62
     8
100
AcDbLine
 10
-593.2763996316346
 20
277.9017742837889
 30
0.0
 11
-593.2763996316346
 21
537.9017742838051
 31
0.0
  0
INSERT
  5
3DC
330
105
100
AcDbEntity
  8
LAYER0016
 62
     8
100
AcDbBlockReference
  2
_OPEN30
 10
-593.2763996316346
 20
277.9017742837889
 30
0.0
 41
29.99997611445993
 42
30.00008592479957
 50
270.0
  0
INSERT
  5
3DD
330
105
100
AcDbEntity
  8
LAYER0016
 62
     8
100
AcDbBlockReference
  2
_OPEN30
 10
-593.2763996316346
 20
537.9017742838051
 30
0.0
 41
29.99997611445993
 42
30.00008592479957
 50
90.0
  0
TEXT
  5
3DE
330
105
100
AcDbEntity
  8
LAYER0016
 62
     7
100
AcDbText
 10
-608.2763996316346
 20
353.901774283797
 30
0.0
 40
45.0
  1
260
 50
90.0
 41
0.8842105263157896
  7
FDASTYLE0
 72
     5
 11
-608.2763996316346
 21
461.901774283797
 31
0.0
100
AcDbText
  0
ENDBLK
  5
107
330
105
100
AcDbEntity
  8
0
100
AcDbBlockEnd
  0
BLOCK
  5
109
330
108
100
AcDbEntity
  8
0
100
AcDbBlockBegin
  2
GROUP_49
 70
     0
 71
     0
 10
0.0
 20
0.0
 30
0.0
  3
GROUP_49
  1

  0
LINE
  5
3DF
330
108
100
AcDbEntity
  8
LAYER0064
 62
     3
100
AcDbLine
 10
777.5000000000018
 20
1255.000000000001
 30
0.0
 11
1977.500000000001
 21
1255.000000000001
 31
0.0
  0
LINE
  5
3E0
330
108
100
AcDbEntity
  8
LAYER0064
 62
     3
100
AcDbLine
 10
777.5000000000018
 20
1355.000000000001
 30
0.0
 11
777.5000000000018
 21
75.00000000000046
 31
0.0
  0
LINE
  5
3E1
330
108
100
AcDbEntity
  8
LAYER0064
 62
     3
100
AcDbLine
 10
777.5000000000018
 20
1055.000000000001
 30
0.0
 11
1977.500000000001
 21
1055.000000000001
 31
0.0
  0
LINE
  5
3E2
330
108
100
AcDbEntity
  8
LAYER0064
 62
     3
100
AcDbLine
 10
877.5000000000005
 20
1055.000000000001
 30
0.0
 11
877.5000000000005
 21
75.00000000000046
 31
0.0
  0
LINE
  5
3E3
330
108
100
AcDbEntity
  8
LAYER0064
 62
     3
100
AcDbLine
 10
777.5000000000018
 20
985.0000000000005
 30
0.0
 11
1977.500000000001
 21
985.0000000000005
 31
0.0
  0
LINE
  5
3E4
330
108
100
AcDbEntity
  8
LAYER0064
 62
     3
100
AcDbLine
 10
777.5000000000018
 20
705.0000000000005
 30
0.0
 11
1977.500000000001
 21
705.0000000000005
 31
0.0
  0
LINE
  5
3E5
330
108
100
AcDbEntity
  8
LAYER0064
 62
     3
100
AcDbLine
 10
777.5000000000018
 20
915.0000000000005
 30
0.0
 11
1977.500000000001
 21
915.0000000000005
 31
0.0
  0
LINE
  5
3E6
330
108
100
AcDbEntity
  8
LAYER0064
 62
     3
100
AcDbLine
 10
777.5000000000018
 20
845.0000000000005
 30
0.0
 11
1977.500000000001
 21
845.0000000000005
 31
0.0
  0
LINE
  5
3E7
330
108
100
AcDbEntity
  8
LAYER0064
 62
     3
100
AcDbLine
 10
777.5000000000018
 20
775.0000000000005
 30
0.0
 11
1977.500000000001
 21
775.0000000000005
 31
0.0
  0
LINE
  5
3E8
330
108
100
AcDbEntity
  8
LAYER0064
 62
     3
100
AcDbLine
 10
777.5000000000018
 20
635.0000000000005
 30
0.0
 11
1977.500000000001
 21
635.0000000000005
 31
0.0
  0
LINE
  5
3E9
330
108
100
AcDbEntity
  8
LAYER0064
 62
     3
100
AcDbLine
 10
777.5000000000018
 20
565.0000000000005
 30
0.0
 11
1977.500000000001
 21
565.0000000000005
 31
0.0
  0
LINE
  5
3EA
330
108
100
AcDbEntity
  8
LAYER0064
 62
     3
100
AcDbLine
 10
777.5000000000018
 20
495.0000000000005
 30
0.0
 11
1977.500000000001
 21
495.0000000000005
 31
0.0
  0
LINE
  5
3EB
330
108
100
AcDbEntity
  8
LAYER0064
 62
     3
100
AcDbLine
 10
1977.500000000001
 20
1355.000000000001
 30
0.0
 11
1977.500000000001
 21
75.00000000000046
 31
0.0
  0
LINE
  5
3EC
330
108
100
AcDbEntity
  8
LAYER0064
 62
     3
100
AcDbLine
 10
777.5000000000018
 20
425.0000000000005
 30
0.0
 11
1977.500000000001
 21
425.0000000000005
 31
0.0
  0
LINE
  5
3ED
330
108
100
AcDbEntity
  8
LAYER0064
 62
     3
100
AcDbLine
 10
777.5000000000018
 20
285.0000000000005
 30
0.0
 11
1977.500000000001
 21
285.0000000000005
 31
0.0
  0
LINE
  5
3EE
330
108
100
AcDbEntity
  8
LAYER0064
 62
     3
100
AcDbLine
 10
777.5000000000018
 20
355.0000000000005
 30
0.0
 11
1977.500000000001
 21
355.0000000000005
 31
0.0
  0
LINE
  5
3EF
330
108
100
AcDbEntity
  8
LAYER0064
 62
     3
100
AcDbLine
 10
777.5000000000018
 20
215.0000000000005
 30
0.0
 11
1977.500000000001
 21
215.0000000000005
 31
0.0
  0
LINE
  5
3F0
330
108
100
AcDbEntity
  8
LAYER0064
 62
     3
100
AcDbLine
 10
777.5000000000018
 20
145.0000000000005
 30
0.0
 11
1977.500000000001
 21
145.0000000000005
 31
0.0
  0
LINE
  5
3F1
330
108
100
AcDbEntity
  8
LAYER0064
 62
     3
100
AcDbLine
 10
777.5000000000018
 20
75.00000000000046
 30
0.0
 11
1977.500000000001
 21
75.00000000000046
 31
0.0
  0
TEXT
  5
3F2
330
108
100
AcDbEntity
  8
LAYER0064
 62
     7
100
AcDbText
 10
800.0000000000009
 20
1278.750000000001
 30
0.0
 40
52.5
  1
掻き揚げ式・コンベヤー・中空軸モーター・仕様
 41
0.6841613746731419
  7
FDASTYLE1
 72
     5
 11
1955.000000000001
 21
1278.750000000001
 31
0.0
100
AcDbText
  0
TEXT
  5
3F3
330
108
100
AcDbEntity
  8
LAYER0064
 62
     7
100
AcDbText
 10
811.2500000000018
 20
1178.750000000001
 30
0.0
 40
52.5
  1
御　客　先
 41
0.6898218478110758
  7
FDASTYLE1
 72
     5
 11
1073.750000000002
 21
1178.750000000001
 31
0.0
100
AcDbText
  0
TEXT
  5
3F4
330
108
100
AcDbEntity
  8
LAYER0064
 62
     7
100
AcDbText
 10
801.2500000000009
 20
993.7500000000005
 30
0.0
 40
52.5
  1
A
 41
1.423076923076923
  7
FDASTYLE1
 72
     5
 11
853.7500000000009
 21
993.7500000000005
 31
0.0
100
AcDbText
  0
TEXT
  5
3F5
330
108
100
AcDbEntity
  8
LAYER0064
 62
     7
100
AcDbText
 10
801.2500000000009
 20
853.7500000000005
 30
0.0
 40
52.5
  1
B
 41
1.469117647058823
  7
FDASTYLE1
 72
     5
 11
853.7500000000009
 21
853.7500000000005
 31
0.0
100
AcDbText
  0
TEXT
  5
3F6
330
108
100
AcDbEntity
  8
LAYER0064
 62
     7
100
AcDbText
 10
801.2500000000009
 20
713.7500000000005
 30
0.0
 40
52.5
  1
C
 41
1.469117647058823
  7
FDASTYLE1
 72
     5
 11
853.7500000000009
 21
713.7500000000005
 31
0.0
100
AcDbText
  0
TEXT
  5
3F7
330
108
100
AcDbEntity
  8
LAYER0064
 62
     7
100
AcDbText
 10
801.2500000000009
 20
643.7500000000005
 30
0.0
 40
52.5
  1
D
 41
1.469117647058823
  7
FDASTYLE1
 72
     5
 11
853.7500000000009
 21
643.7500000000005
 31
0.0
100
AcDbText
  0
TEXT
  5
3F8
330
108
100
AcDbEntity
  8
LAYER0064
 62
     7
100
AcDbText
 10
902.5000000000005
 20
713.7500000000005
 30
0.0
 40
52.5
  1
機全長（水平）
 41
0.7605220228384991
  7
FDASTYLE1
 72
     5
 11
1270.000000000001
 21
713.7500000000005
 31
0.0
100
AcDbText
  0
TEXT
  5
3F9
330
108
100
AcDbEntity
  8
LAYER0064
 62
     7
100
AcDbText
 10
902.5000000000005
 20
993.7500000000005
 30
0.0
 40
52.5
  1
機　幅（水平）
 41
0.7605220228384991
  7
FDASTYLE1
 72
     5
 11
1270.000000000001
 21
993.7500000000005
 31
0.0
100
AcDbText
  0
TEXT
  5
3FA
330
108
100
AcDbEntity
  8
LAYER0064
 62
     7
100
AcDbText
 10
902.5000000000005
 20
643.7500000000005
 30
0.0
 40
52.5
  1
機全高（垂直）
 41
0.7605220228384991
  7
FDASTYLE1
 72
     5
 11
1270.000000000001
 21
643.7500000000005
 31
0.0
100
AcDbText
  0
TEXT
  5
3FB
330
108
100
AcDbEntity
  8
LAYER0064
 62
     7
100
AcDbText
 10
902.5000000000005
 20
923.7500000000005
 30
0.0
 40
52.5
  1
標　準
 41
0.6905529953917051
  7
FDASTYLE1
 72
     5
 11
1060.000000000001
 21
923.7500000000005
 31
0.0
100
AcDbText
  0
TEXT
  5
3FC
330
108
100
AcDbEntity
  8
LAYER0064
 62
     7
100
AcDbText
 10
798.5000000000018
 20
1082.500000000001
 30
0.0
 40
45.0
  1
END　USER
 41
0.9761221374045802
  7
FDASTYLE1
 72
     5
 11
1086.500000000002
 21
1082.500000000001
 31
0.0
100
AcDbText
  0
TEXT
  5
3FD
330
108
100
AcDbEntity
  8
LAYER0064
 62
     7
100
AcDbText
 10
902.5000000000005
 20
853.7500000000005
 30
0.0
 40
52.5
  1
機　幅（垂直）
 41
0.7605220228384991
  7
FDASTYLE1
 72
     5
 11
1270.000000000001
 21
853.7500000000005
 31
0.0
100
AcDbText
  0
TEXT
  5
3FE
330
108
100
AcDbEntity
  8
LAYER0064
 62
     7
100
AcDbText
 10
902.5000000000005
 20
783.7500000000005
 30
0.0
 40
52.5
  1
標　準
 41
0.6905529953917051
  7
FDASTYLE1
 72
     5
 11
1060.000000000001
 21
783.7500000000005
 31
0.0
100
AcDbText
  0
TEXT
  5
3FF
330
108
100
AcDbEntity
  8
LAYER0064
 62
     7
100
AcDbText
 10
1270.000000000001
 20
853.7500000000005
 30
0.0
 40
52.5
  1
最低120～　　　　　mm
 41
0.8463343108504399
  7
FDASTYLE1
 72
     5
 11
1952.500000000001
 21
853.7500000000005
 31
0.0
100
AcDbText
  0
TEXT
  5
400
330
108
100
AcDbEntity
  8
LAYER0064
 62
     7
100
AcDbText
 10
801.2500000000009
 20
573.7500000000005
 30
0.0
 40
52.5
  1
E
 41
1.458394160583942
  7
FDASTYLE1
 72
     5
 11
853.7500000000009
 21
573.7500000000005
 31
0.0
100
AcDbText
  0
TEXT
  5
401
330
108
100
AcDbEntity
  8
LAYER0064
 62
     7
100
AcDbText
 10
902.5000000000005
 20
503.7500000000005
 30
0.0
 40
52.5
  1
傾斜角
 41
0.7149332061068702
  7
FDASTYLE1
 72
     5
 11
1060.000000000001
 21
503.7500000000005
 31
0.0
100
AcDbText
  0
TEXT
  5
402
330
108
100
AcDbEntity
  8
LAYER0064
 62
     7
100
AcDbText
 10
902.5000000000005
 20
573.7500000000005
 30
0.0
 40
52.5
  1
落口高さ（D-410）
 41
0.9649631190727083
  7
FDASTYLE1
 72
     5
 11
1480.000000000001
 21
573.7500000000005
 31
0.0
100
AcDbText
  0
TEXT
  5
403
330
108
100
AcDbEntity
  8
LAYER0064
 62
     7
100
AcDbText
 10
1060.000000000001
 20
503.7500000000005
 30
0.0
 40
52.5
  1
（標準・50度・変更可）
 41
0.7969155088745598
  7
FDASTYLE1
 72
     5
 11
1690.000000000001
 21
503.7500000000005
 31
0.0
100
AcDbText
  0
TEXT
  5
404
330
108
100
AcDbEntity
  8
LAYER0064
 62
     7
100
AcDbText
 10
1847.500000000001
 20
573.7500000000005
 30
0.0
 40
52.5
  1
mm
 41
1.372252747252747
  7
FDASTYLE1
 72
     5
 11
1952.500000000001
 21
573.7500000000005
 31
0.0
100
AcDbText
  0
TEXT
  5
405
330
108
100
AcDbEntity
  8
LAYER0064
 62
     7
100
AcDbText
 10
1847.500000000001
 20
713.7500000000005
 30
0.0
 40
52.5
  1
mm
 41
1.372252747252747
  7
FDASTYLE1
 72
     5
 11
1952.500000000001
 21
713.7500000000005
 31
0.0
100
AcDbText
  0
TEXT
  5
406
330
108
100
AcDbEntity
  8
LAYER0064
 62
     7
100
AcDbText
 10
1847.500000000001
 20
643.7500000000005
 30
0.0
 40
52.5
  1
mm
 41
1.372252747252747
  7
FDASTYLE1
 72
     5
 11
1952.500000000001
 21
643.7500000000005
 31
0.0
100
AcDbText
  0
TEXT
  5
407
330
108
100
AcDbEntity
  8
LAYER0064
 62
     7
100
AcDbText
 10
1847.500000000001
 20
993.7500000000005
 30
0.0
 40
52.5
  1
mm
 41
1.372252747252747
  7
FDASTYLE1
 72
     5
 11
1952.500000000001
 21
993.7500000000005
 31
0.0
100
AcDbText
  0
TEXT
  5
408
330
108
100
AcDbEntity
  8
LAYER0064
 62
     7
100
AcDbText
 10
1885.625000000001
 20
503.7500000000005
 30
0.0
 40
52.5
  1
度
 41
0.7171572146446518
  7
FDASTYLE1
 72
     5
 11
1938.125000000001
 21
503.7500000000005
 31
0.0
100
AcDbText
  0
TEXT
  5
409
330
108
100
AcDbEntity
  8
LAYER0064
 62
     7
100
AcDbText
 10
1322.500000000001
 20
923.7500000000005
 30
0.0
 40
52.5
  1
約300～1100　mm
 41
1.093895428415001
  7
FDASTYLE1
 72
     5
 11
1952.500000000001
 21
923.7500000000005
 31
0.0
100
AcDbText
  0
TEXT
  5
40A
330
108
100
AcDbEntity
  8
LAYER0064
 62
     7
100
AcDbText
 10
902.5000000000005
 20
433.7500000000005
 30
0.0
 40
52.5
  1
減速機：0.1kw
 41
0.9467200168474257
  7
FDASTYLE1
 72
     5
 11
1375.000000000001
 21
433.7500000000005
 31
0.0
100
AcDbText
  0
TEXT
  5
40B
330
108
100
AcDbEntity
  8
LAYER0064
 62
     7
100
AcDbText
 10
1532.500000000001
 20
433.7500000000005
 30
0.0
 40
52.5
  1
168.7　mm
 41
1.215883158375171
  7
FDASTYLE1
 72
     5
 11
1952.500000000001
 21
433.7500000000005
 31
0.0
100
AcDbText
  0
TEXT
  5
40C
330
108
100
AcDbEntity
  8
LAYER0064
 62
     7
100
AcDbText
 10
801.2500000000009
 20
503.7500000000005
 30
0.0
 40
52.5
  1
F
 41
1.423076923076923
  7
FDASTYLE1
 72
     5
 11
853.7500000000009
 21
503.7500000000005
 31
0.0
100
AcDbText
  0
TEXT
  5
40D
330
108
100
AcDbEntity
  8
LAYER0064
 62
     7
100
AcDbText
 10
801.2500000000009
 20
433.7500000000005
 30
0.0
 40
52.5
  1
G
 41
1.423076923076923
  7
FDASTYLE1
 72
     5
 11
853.7500000000009
 21
433.7500000000005
 31
0.0
100
AcDbText
  0
TEXT
  5
40E
330
108
100
AcDbEntity
  8
LAYER0064
 62
     7
100
AcDbText
 10
1532.500000000001
 20
363.7500000000005
 30
0.0
 40
52.5
  1
195.7　mm
 41
1.215883158375171
  7
FDASTYLE1
 72
     5
 11
1952.500000000001
 21
363.7500000000005
 31
0.0
100
AcDbText
  0
TEXT
  5
40F
330
108
100
AcDbEntity
  8
LAYER0064
 62
     7
100
AcDbText
 10
1847.500000000001
 20
293.7500000000005
 30
0.0
 40
52.5
  1
mm
 41
1.372252747252747
  7
FDASTYLE1
 72
     5
 11
1952.500000000001
 21
293.7500000000005
 31
0.0
100
AcDbText
  0
TEXT
  5
410
330
108
100
AcDbEntity
  8
LAYER0064
 62
     7
100
AcDbText
 10
902.5000000000005
 20
293.7500000000005
 30
0.0
 40
52.5
  1
総　幅（A+G+110）
 41
1.052687038988409
  7
FDASTYLE1
 72
     5
 11
1532.500000000001
 21
293.7500000000005
 31
0.0
100
AcDbText
  0
TEXT
  5
411
330
108
100
AcDbEntity
  8
LAYER0064
 62
     7
100
AcDbText
 10
902.5000000000005
 20
363.7500000000005
 30
0.0
 40
52.5
  1
減速機：0.2kw
 41
0.9467200168474257
  7
FDASTYLE1
 72
     5
 11
1375.000000000001
 21
363.7500000000005
 31
0.0
100
AcDbText
  0
TEXT
  5
412
330
108
100
AcDbEntity
  8
LAYER0064
 62
     7
100
AcDbText
 10
902.5000000000005
 20
223.7500000000005
 30
0.0
 40
52.5
  1
減速機：0.1kw
 41
0.9467200168474257
  7
FDASTYLE1
 72
     5
 11
1375.000000000001
 21
223.7500000000005
 31
0.0
100
AcDbText
  0
TEXT
  5
413
330
108
100
AcDbEntity
  8
LAYER0064
 62
     7
100
AcDbText
 10
902.5000000000005
 20
153.7500000000005
 30
0.0
 40
52.5
  1
減速機：0.2kw
 41
0.9467200168474257
  7
FDASTYLE1
 72
     5
 11
1375.000000000001
 21
153.7500000000005
 31
0.0
100
AcDbText
  0
TEXT
  5
414
330
108
100
AcDbEntity
  8
LAYER0064
 62
     7
100
AcDbText
 10
801.2500000000009
 20
223.7500000000005
 30
0.0
 40
52.5
  1
J
 41
1.433285509325681
  7
FDASTYLE1
 72
     5
 11
853.7500000000009
 21
223.7500000000005
 31
0.0
100
AcDbText
  0
TEXT
  5
415
330
108
100
AcDbEntity
  8
LAYER0064
 62
     7
100
AcDbText
 10
1532.500000000001
 20
223.7500000000005
 30
0.0
 40
52.5
  1
525.4　mm
 41
1.215883158375171
  7
FDASTYLE1
 72
     5
 11
1952.500000000001
 21
223.7500000000005
 31
0.0
100
AcDbText
  0
TEXT
  5
416
330
108
100
AcDbEntity
  8
LAYER0064
 62
     7
100
AcDbText
 10
1532.500000000001
 20
153.7500000000005
 30
0.0
 40
52.5
  1
599.4　mm
 41
1.215883158375171
  7
FDASTYLE1
 72
     5
 11
1952.500000000001
 21
153.7500000000005
 31
0.0
100
AcDbText
  0
TEXT
  5
417
330
108
100
AcDbEntity
  8
LAYER0064
 62
     7
100
AcDbText
 10
1900.000000000001
 20
1178.750000000001
 30
0.0
 40
52.5
  1
殿
 41
0.697138869504536
  7
FDASTYLE1
 72
     5
 11
1952.500000000001
 21
1178.750000000001
 31
0.0
100
AcDbText
  0
TEXT
  5
418
330
108
100
AcDbEntity
  8
LAYER0064
 62
     7
100
AcDbText
 10
1900.000000000001
 20
1078.750000000001
 30
0.0
 40
52.5
  1
殿
 41
0.697138869504536
  7
FDASTYLE1
 72
     5
 11
1952.500000000001
 21
1078.750000000001
 31
0.0
100
AcDbText
  0
TEXT
  5
419
330
108
100
AcDbEntity
  8
LAYER0064
 62
     7
100
AcDbText
 10
1532.500000000001
 20
783.7500000000005
 30
0.0
 40
52.5
  1
180.0　mm
 41
1.215883158375171
  7
FDASTYLE1
 72
     5
 11
1952.500000000001
 21
783.7500000000005
 31
0.0
100
AcDbText
  0
TEXT
  5
41A
330
108
100
AcDbEntity
  8
LAYER0064
 62
     7
100
AcDbText
 10
801.2500000000009
 20
293.7500000000005
 30
0.0
 40
52.5
  1
H
 41
1.423076923076923
  7
FDASTYLE1
 72
     5
 11
853.7500000000009
 21
293.7500000000005
 31
0.0
100
AcDbText
  0
TEXT
  5
41B
330
108
100
AcDbEntity
  8
LAYER0064
 62
     7
100
AcDbText
 10
902.5000000000005
 20
83.75000000000046
 30
0.0
 40
52.5
  1
マグネット
 41
0.7105263157894737
  7
FDASTYLE1
 72
     5
 11
1165.000000000001
 21
83.75000000000046
 31
0.0
100
AcDbText
  0
TEXT
  5
41C
330
108
100
AcDbEntity
  8
LAYER0064
 62
     7
100
AcDbText
 10
801.2500000000009
 20
83.75000000000046
 30
0.0
 40
52.5
  1
K
 41
1.423076923076923
  7
FDASTYLE1
 72
     5
 11
853.7500000000009
 21
83.75000000000046
 31
0.0
100
AcDbText
  0
TEXT
  5
41D
330
108
100
AcDbEntity
  8
LAYER0064
 62
     7
100
AcDbText
 10
1532.500000000001
 20
83.75000000000046
 30
0.0
 40
52.5
  1
有　・　無
 41
0.6881113100978096
  7
FDASTYLE1
 72
     5
 11
1795.000000000001
 21
83.75000000000046
 31
0.0
100
AcDbText
  0
LINE
  5
41E
330
108
100
AcDbEntity
  8
0
 62
     3
100
AcDbLine
 10
777.5000000000018
 20
1155.000000000001
 30
0.0
 11
1977.500000000001
 21
1155.000000000001
 31
0.0
  0
LINE
  5
41F
330
108
100
AcDbEntity
  8
0
 62
     3
100
AcDbLine
 10
1977.500000000001
 20
1355.000000000001
 30
0.0
 11
777.5000000000018
 21
1355.000000000001
 31
0.0
  0
LINE
  5
420
330
108
100
AcDbEntity
  8
0
 62
     3
100
AcDbLine
 10
1107.500000000002
 20
1055.000000000001
 30
0.0
 11
1107.500000000002
 21
1255.000000000001
 31
0.0
  0
LINE
  5
421
330
108
100
AcDbEntity
  8
0
 62
     7
100
AcDbLine
 10
777.5000000000018
 20
915.0000000000005
 30
0.0
 11
877.5000000000005
 21
985.0000000000005
 31
0.0
  0
LINE
  5
422
330
108
100
AcDbEntity
  8
0
 62
     7
100
AcDbLine
 10
777.5000000000018
 20
775.0000000000005
 30
0.0
 11
877.5000000000005
 21
845.0000000000005
 31
0.0
  0
LINE
  5
423
330
108
100
AcDbEntity
  8
0
 62
     7
100
AcDbLine
 10
777.5000000000018
 20
355.0000000000005
 30
0.0
 11
877.5000000000005
 21
425.0000000000005
 31
0.0
  0
LINE
  5
424
330
108
100
AcDbEntity
  8
0
 62
     7
100
AcDbLine
 10
777.5000000000018
 20
145.0000000000005
 30
0.0
 11
877.5000000000005
 21
215.0000000000005
 31
0.0
  0
ENDBLK
  5
10A
330
108
100
AcDbEntity
  8
0
100
AcDbBlockEnd
  0
BLOCK
  5
111
330
110
100
AcDbEntity
  8
0
100
AcDbBlockBegin
  2
_OPEN30
 70
     0
 71
     0
 10
0.0
 20
0.0
 30
0.0
  3
_OPEN30
  1

  0
LINE
  5
113
330
110
100
AcDbEntity
  8
0
  6
BYBLOCK
 62
     0
100
AcDbLine
 10
-1.0
 20
0.267949
 30
0.0
 11
0.0
 21
0.0
 31
0.0
  0
LINE
  5
114
330
110
100
AcDbEntity
  8
0
  6
BYBLOCK
 62
     0
100
AcDbLine
 10
0.0
 20
0.0
 30
0.0
 11
-1.0
 21
-0.267949
 31
0.0
  0
LINE
  5
115
330
110
100
AcDbEntity
  8
0
  6
BYBLOCK
 62
     0
100
AcDbLine
 10
0.0
 20
0.0
 30
0.0
 11
-1.0
 21
0.0
 31
0.0
  0
ENDBLK
  5
112
330
110
100
AcDbEntity
  8
0
100
AcDbBlockEnd
  0
ENDSEC
  0
SECTION
  2
ENTITIES
  0
INSERT
  5
130
330
1F
100
AcDbEntity
  8
0
  6
CONTINUOUS
100
AcDbBlockReference
  2
GROUP_3
 10
0.0
 20
0.0
 30
0.0
  0
INSERT
  5
131
330
1F
100
AcDbEntity
  8
0
  6
CONTINUOUS
100
AcDbBlockReference
  2
GROUP_4
 10
0.0
 20
0.0
 30
0.0
  0
INSERT
  5
132
330
1F
100
AcDbEntity
  8
0
  6
CONTINUOUS
100
AcDbBlockReference
  2
GROUP_5
 10
0.0
 20
0.0
 30
0.0
  0
INSERT
  5
133
330
1F
100
AcDbEntity
  8
0
  6
CONTINUOUS
100
AcDbBlockReference
  2
GROUP_8
 10
0.0
 20
0.0
 30
0.0
  0
INSERT
  5
134
330
1F
100
AcDbEntity
  8
0
  6
CONTINUOUS
100
AcDbBlockReference
  2
GROUP_11
 10
0.0
 20
0.0
 30
0.0
  0
INSERT
  5
141
330
1F
100
AcDbEntity
  8
0
  6
CONTINUOUS
100
AcDbBlockReference
  2
GROUP_6
 10
0.0
 20
0.0
 30
0.0
  0
INSERT
  5
142
330
1F
100
AcDbEntity
  8
0
  6
CONTINUOUS
100
AcDbBlockReference
  2
GROUP_7
 10
0.0
 20
0.0
 30
0.0
  0
INSERT
  5
14F
330
1F
100
AcDbEntity
  8
0
  6
CONTINUOUS
100
AcDbBlockReference
  2
GROUP_9
 10
0.0
 20
0.0
 30
0.0
  0
INSERT
  5
150
330
1F
100
AcDbEntity
  8
0
  6
CONTINUOUS
100
AcDbBlockReference
  2
GROUP_10
 10
0.0
 20
0.0
 30
0.0
  0
INSERT
  5
1BA
330
1F
100
AcDbEntity
  8
0
  6
CONTINUOUS
100
AcDbBlockReference
  2
GROUP_13
 10
0.0
 20
0.0
 30
0.0
  0
INSERT
  5
1BB
330
1F
100
AcDbEntity
  8
0
  6
CONTINUOUS
100
AcDbBlockReference
  2
GROUP_14
 10
0.0
 20
0.0
 30
0.0
  0
INSERT
  5
1BC
330
1F
100
AcDbEntity
  8
0
  6
CONTINUOUS
100
AcDbBlockReference
  2
GROUP_16
 10
0.0
 20
0.0
 30
0.0
  0
INSERT
  5
1BD
330
1F
100
AcDbEntity
  8
0
  6
CONTINUOUS
100
AcDbBlockReference
  2
GROUP_17
 10
0.0
 20
0.0
 30
0.0
  0
INSERT
  5
1BE
330
1F
100
AcDbEntity
  8
0
  6
CONTINUOUS
100
AcDbBlockReference
  2
GROUP_18
 10
0.0
 20
0.0
 30
0.0
  0
INSERT
  5
1BF
330
1F
100
AcDbEntity
  8
0
  6
CONTINUOUS
100
AcDbBlockReference
  2
GROUP_19
 10
0.0
 20
0.0
 30
0.0
  0
INSERT
  5
1C0
330
1F
100
AcDbEntity
  8
0
  6
CONTINUOUS
100
AcDbBlockReference
  2
GROUP_20
 10
0.0
 20
0.0
 30
0.0
  0
INSERT
  5
1C1
330
1F
100
AcDbEntity
  8
0
  6
CONTINUOUS
100
AcDbBlockReference
  2
GROUP_21
 10
0.0
 20
0.0
 30
0.0
  0
INSERT
  5
1C2
330
1F
100
AcDbEntity
  8
0
  6
CONTINUOUS
100
AcDbBlockReference
  2
GROUP_22
 10
0.0
 20
0.0
 30
0.0
  0
INSERT
  5
1C3
330
1F
100
AcDbEntity
  8
0
  6
CONTINUOUS
100
AcDbBlockReference
  2
GROUP_23
 10
0.0
 20
0.0
 30
0.0
  0
INSERT
  5
1C4
330
1F
100
AcDbEntity
  8
0
  6
CONTINUOUS
100
AcDbBlockReference
  2
GROUP_24
 10
0.0
 20
0.0
 30
0.0
  0
INSERT
  5
230
330
1F
100
AcDbEntity
  8
0
  6
CONTINUOUS
100
AcDbBlockReference
  2
GROUP_15
 10
0.0
 20
0.0
 30
0.0
  0
INSERT
  5
283
330
1F
100
AcDbEntity
  8
0
  6
CONTINUOUS
100
AcDbBlockReference
  2
GROUP_26
 10
0.0
 20
0.0
 30
0.0
  0
INSERT
  5
290
330
1F
100
AcDbEntity
  8
0
  6
CONTINUOUS
100
AcDbBlockReference
  2
GROUP_28
 10
0.0
 20
0.0
 30
0.0
  0
INSERT
  5
291
330
1F
100
AcDbEntity
  8
0
  6
CONTINUOUS
100
AcDbBlockReference
  2
GROUP_29
 10
0.0
 20
0.0
 30
0.0
  0
INSERT
  5
292
330
1F
100
AcDbEntity
  8
0
  6
CONTINUOUS
100
AcDbBlockReference
  2
GROUP_30
 10
0.0
 20
0.0
 30
0.0
  0
INSERT
  5
293
330
1F
100
AcDbEntity
  8
0
  6
CONTINUOUS
100
AcDbBlockReference
  2
GROUP_32
 10
0.0
 20
0.0
 30
0.0
  0
INSERT
  5
294
330
1F
100
AcDbEntity
  8
0
  6
CONTINUOUS
100
AcDbBlockReference
  2
GROUP_33
 10
0.0
 20
0.0
 30
0.0
  0
INSERT
  5
295
330
1F
100
AcDbEntity
  8
0
  6
CONTINUOUS
100
AcDbBlockReference
  2
GROUP_35
 10
0.0
 20
0.0
 30
0.0
  0
INSERT
  5
296
330
1F
100
AcDbEntity
  8
0
  6
CONTINUOUS
100
AcDbBlockReference
  2
GROUP_37
 10
0.0
 20
0.0
 30
0.0
  0
INSERT
  5
297
330
1F
100
AcDbEntity
  8
0
  6
CONTINUOUS
100
AcDbBlockReference
  2
GROUP_44
 10
0.0
 20
0.0
 30
0.0
  0
INSERT
  5
29F
330
1F
100
AcDbEntity
  8
0
  6
CONTINUOUS
100
AcDbBlockReference
  2
GROUP_31
 10
0.0
 20
0.0
 30
0.0
  0
INSERT
  5
2DD
330
1F
100
AcDbEntity
  8
0
  6
CONTINUOUS
100
AcDbBlockReference
  2
GROUP_34
 10
0.0
 20
0.0
 30
0.0
  0
INSERT
  5
2EB
330
1F
100
AcDbEntity
  8
0
  6
CONTINUOUS
100
AcDbBlockReference
  2
GROUP_36
 10
0.0
 20
0.0
 30
0.0
  0
INSERT
  5
2F0
330
1F
100
AcDbEntity
  8
0
  6
CONTINUOUS
100
AcDbBlockReference
  2
GROUP_38
 10
0.0
 20
0.0
 30
0.0
  0
INSERT
  5
2F1
330
1F
100
AcDbEntity
  8
0
  6
CONTINUOUS
100
AcDbBlockReference
  2
GROUP_42
 10
0.0
 20
0.0
 30
0.0
  0
INSERT
  5
2F2
330
1F
100
AcDbEntity
  8
0
  6
CONTINUOUS
100
AcDbBlockReference
  2
GROUP_43
 10
0.0
 20
0.0
 30
0.0
  0
INSERT
  5
301
330
1F
100
AcDbEntity
  8
0
  6
CONTINUOUS
100
AcDbBlockReference
  2
GROUP_39
 10
0.0
 20
0.0
 30
0.0
  0
INSERT
  5
302
330
1F
100
AcDbEntity
  8
0
  6
CONTINUOUS
100
AcDbBlockReference
  2
GROUP_40
 10
0.0
 20
0.0
 30
0.0
  0
INSERT
  5
303
330
1F
100
AcDbEntity
  8
0
  6
CONTINUOUS
100
AcDbBlockReference
  2
GROUP_41
 10
0.0
 20
0.0
 30
0.0
  0
INSERT
  5
3AE
330
1F
100
AcDbEntity
  8
0
  6
CONTINUOUS
100
AcDbBlockReference
  2
GROUP_46
 10
0.0
 20
0.0
 30
0.0
  0
INSERT
  5
425
330
1F
100
AcDbEntity
  8
0
  6
CONTINUOUS
100
AcDbBlockReference
  2
GROUP_1
 10
0.0
 20
0.0
 30
0.0
  0
INSERT
  5
426
330
1F
100
AcDbEntity
  8
0
  6
CONTINUOUS
100
AcDbBlockReference
  2
GROUP_2
 10
0.0
 20
0.0
 30
0.0
  0
INSERT
  5
427
330
1F
100
AcDbEntity
  8
0
  6
CONTINUOUS
100
AcDbBlockReference
  2
GROUP_12
 10
0.0
 20
0.0
 30
0.0
  0
INSERT
  5
428
330
1F
100
AcDbEntity
  8
0
  6
CONTINUOUS
100
AcDbBlockReference
  2
GROUP_25
 10
0.0
 20
0.0
 30
0.0
  0
INSERT
  5
429
330
1F
100
AcDbEntity
  8
0
  6
CONTINUOUS
100
AcDbBlockReference
  2
GROUP_27
 10
0.0
 20
0.0
 30
0.0
  0
INSERT
  5
42A
330
1F
100
AcDbEntity
  8
0
  6
CONTINUOUS
100
AcDbBlockReference
  2
GROUP_45
 10
0.0
 20
0.0
 30
0.0
  0
INSERT
  5
42B
330
1F
100
AcDbEntity
  8
0
  6
CONTINUOUS
100
AcDbBlockReference
  2
GROUP_47
 10
0.0
 20
0.0
 30
0.0
  0
INSERT
  5
42C
330
1F
100
AcDbEntity
  8
0
  6
CONTINUOUS
100
AcDbBlockReference
  2
GROUP_48
 10
0.0
 20
0.0
 30
0.0
  0
INSERT
  5
42D
330
1F
100
AcDbEntity
  8
0
  6
CONTINUOUS
100
AcDbBlockReference
  2
GROUP_49
 10
0.0
 20
0.0
 30
0.0
  0
INSERT
  5
42E
330
1F
100
AcDbEntity
  8
LAYER0016
  6
CONTINUOUS
100
AcDbBlockReference
  2
DA_IMAGEDIMGROUP_1
 10
0.0
 20
0.0
 30
0.0
  0
INSERT
  5
42F
330
1F
100
AcDbEntity
  8
LAYER0016
  6
CONTINUOUS
100
AcDbBlockReference
  2
DA_IMAGEDIMGROUP_2
 10
0.0
 20
0.0
 30
0.0
  0
INSERT
  5
430
330
1F
100
AcDbEntity
  8
LAYER0016
  6
CONTINUOUS
100
AcDbBlockReference
  2
DA_IMAGEDIMGROUP_3
 10
0.0
 20
0.0
 30
0.0
  0
INSERT
  5
431
330
1F
100
AcDbEntity
  8
LAYER0016
  6
CONTINUOUS
100
AcDbBlockReference
  2
DA_IMAGEDIMGROUP_4
 10
0.0
 20
0.0
 30
0.0
  0
INSERT
  5
432
330
1F
100
AcDbEntity
  8
LAYER0016
  6
CONTINUOUS
100
AcDbBlockReference
  2
DA_IMAGEDIMGROUP_5
 10
0.0
 20
0.0
 30
0.0
  0
INSERT
  5
433
330
1F
100
AcDbEntity
  8
LAYER0016
  6
CONTINUOUS
100
AcDbBlockReference
  2
DA_IMAGEDIMGROUP_6
 10
0.0
 20
0.0
 30
0.0
  0
INSERT
  5
434
330
1F
100
AcDbEntity
  8
LAYER0016
  6
CONTINUOUS
100
AcDbBlockReference
  2
DA_IMAGEDIMGROUP_7
 10
0.0
 20
0.0
 30
0.0
  0
INSERT
  5
435
330
1F
100
AcDbEntity
  8
LAYER0016
  6
CONTINUOUS
100
AcDbBlockReference
  2
DA_IMAGEDIMGROUP_8
 10
0.0
 20
0.0
 30
0.0
  0
INSERT
  5
436
330
1F
100
AcDbEntity
  8
LAYER0016
  6
CONTINUOUS
100
AcDbBlockReference
  2
DA_IMAGEDIMGROUP_9
 10
0.0
 20
0.0
 30
0.0
  0
INSERT
  5
437
330
1F
100
AcDbEntity
  8
LAYER0016
  6
CONTINUOUS
100
AcDbBlockReference
  2
DA_IMAGEDIMGROUP_10
 10
0.0
 20
0.0
 30
0.0
  0
INSERT
  5
438
330
1F
100
AcDbEntity
  8
LAYER0016
  6
CONTINUOUS
100
AcDbBlockReference
  2
DA_IMAGEDIMGROUP_11
 10
0.0
 20
0.0
 30
0.0
  0
INSERT
  5
439
330
1F
100
AcDbEntity
  8
LAYER0016
  6
CONTINUOUS
100
AcDbBlockReference
  2
DA_IMAGEDIMGROUP_12
 10
0.0
 20
0.0
 30
0.0
  0
INSERT
  5
43A
330
1F
100
AcDbEntity
  8
LAYER0016
  6
CONTINUOUS
100
AcDbBlockReference
  2
DA_IMAGEDIMGROUP_13
 10
0.0
 20
0.0
 30
0.0
  0
INSERT
  5
43B
330
1F
100
AcDbEntity
  8
LAYER0016
  6
CONTINUOUS
100
AcDbBlockReference
  2
DA_IMAGEDIMGROUP_14
 10
0.0
 20
0.0
 30
0.0
  0
ARC
  5
43C
330
1F
100
AcDbEntity
  8
0
 62
     7
100
AcDbCircle
 10
24.13432166138921
 20
-200.7308418180351
 30
0.0
 40
350.0
100
AcDbArc
 50
60.00000000000004
 51
120.0000000016951
  0
INSERT
  5
43D
330
1F
100
AcDbEntity
  8
0
 62
     7
100
AcDbBlockReference
  2
_OPEN30
 10
-150.8656783475784
 20
102.378049501341
 30
0.0
 41
29.99997611445993
 42
30.00008592479957
 50
207.5444679469601
  0
TEXT
  5
43E
330
1F
100
AcDbEntity
  8
LAYER0064
 62
     7
100
AcDbText
 10
-110.8656858386108
 20
189.2691581819649
 30
0.0
 40
60.0
  1
回転方向
 41
0.7856519136228591
  7
FDASTYLE1
 72
     5
 11
159.1343291613892
 21
189.2691581819649
 31
0.0
100
AcDbText
  0
TEXT
  5
43F
330
1F
100
AcDbEntity
  8
LAYER0064
 62
     7
100
AcDbText
 10
-1945.400600282408
 20
-1044.910272079403
 30
0.0
 40
56.25
  1
M
 41
1.399159663865546
  7
FDASTYLE1
 72
     5
 11
-1889.150600282408
 21
-1044.910272079403
 31
0.0
100
AcDbText
  0
TEXT
  5
440
330
1F
100
AcDbEntity
  8
LAYER0064
 62
     7
100
AcDbText
 10
2324.375
 20
-189.3749999999986
 30
0.0
 40
56.25
  1
A
 41
1.423076923076923
  7
FDASTYLE1
 72
     5
 11
2380.625
 21
-189.3749999999986
 31
0.0
100
AcDbText
  0
TEXT
  5
441
330
1F
100
AcDbEntity
  8
LAYER0064
 62
     7
100
AcDbText
 10
2324.375
 20
-286.8749999999982
 30
0.0
 40
56.25
  1
B
 41
1.469117647058824
  7
FDASTYLE1
 72
     5
 11
2380.625
 21
-286.8749999999982
 31
0.0
100
AcDbText
  0
TEXT
  5
442
330
1F
100
AcDbEntity
  8
LAYER0064
 62
     7
100
AcDbText
 10
2324.375
 20
-384.3749999999982
 30
0.0
 40
56.25
  1
C
 41
1.469117647058824
  7
FDASTYLE1
 72
     5
 11
2380.625
 21
-384.3749999999982
 31
0.0
100
AcDbText
  0
TEXT
  5
443
330
1F
100
AcDbEntity
  8
LAYER0064
 62
     7
100
AcDbText
 10
2324.375
 20
-481.8749999999982
 30
0.0
 40
56.25
  1
D
 41
1.469117647058824
  7
FDASTYLE1
 72
     5
 11
2380.625
 21
-481.8749999999982
 31
0.0
100
AcDbText
  0
TEXT
  5
444
330
1F
100
AcDbEntity
  8
LAYER0064
 62
     7
100
AcDbText
 10
2324.375
 20
-579.3749999999982
 30
0.0
 40
56.25
  1
E
 41
1.458394160583942
  7
FDASTYLE1
 72
     5
 11
2380.625
 21
-579.3749999999982
 31
0.0
100
AcDbText
  0
TEXT
  5
445
330
1F
100
AcDbEntity
  8
LAYER0064
 62
     7
100
AcDbText
 10
2410.000000000001
 20
-91.87499999999864
 30
0.0
 40
56.25
  1
本図・参考・寸法
 41
0.6853026925055736
  7
FDASTYLE1
 72
     5
 11
2860.000000000001
 21
-91.87499999999864
 31
0.0
100
AcDbText
  0
TEXT
  5
446
330
1F
100
AcDbEntity
  8
LAYER0064
 62
     7
100
AcDbText
 10
2585.625000000001
 20
-579.3749999999982
 30
0.0
 40
56.25
  1
50　　　　度
 41
0.7231644260599793
  7
FDASTYLE1
 72
     5
 11
2940.000000000001
 21
-579.3749999999982
 31
0.0
100
AcDbText
  0
TEXT
  5
447
330
1F
100
AcDbEntity
  8
LAYER0064
 62
     7
100
AcDbText
 10
2532.187500000001
 20
-676.8749999999982
 30
0.0
 40
56.25
  1
168.7　mm
 41
1.094294842537654
  7
FDASTYLE1
 72
     5
 11
2937.187500000001
 21
-676.8749999999982
 31
0.0
100
AcDbText
  0
TEXT
  5
448
330
1F
100
AcDbEntity
  8
LAYER0064
 62
     7
100
AcDbText
 10
2324.375
 20
-676.8749999999982
 30
0.0
 40
56.25
  1
F
 41
1.423076923076923
  7
FDASTYLE1
 72
     5
 11
2380.625
 21
-676.8749999999982
 31
0.0
100
AcDbText
  0
TEXT
  5
449
330
1F
100
AcDbEntity
  8
LAYER0064
 62
     7
100
AcDbText
 10
2324.375
 20
-774.3749999999982
 30
0.0
 40
56.25
  1
G
 41
1.423076923076923
  7
FDASTYLE1
 72
     5
 11
2380.625
 21
-774.3749999999982
 31
0.0
100
AcDbText
  0
TEXT
  5
44A
330
1F
100
AcDbEntity
  8
LAYER0064
 62
     7
100
AcDbText
 10
2324.375
 20
-871.8749999999982
 30
0.0
 40
56.25
  1
H
 41
1.423076923076923
  7
FDASTYLE1
 72
     5
 11
2380.625
 21
-871.8749999999982
 31
0.0
100
AcDbText
  0
TEXT
  5
44B
330
1F
100
AcDbEntity
  8
LAYER0064
 62
     7
100
AcDbText
 10
2532.187500000001
 20
-871.8749999999982
 30
0.0
 40
56.25
  1
525.4　mm
 41
1.094294842537654
  7
FDASTYLE1
 72
     5
 11
2937.187500000001
 21
-871.8749999999982
 31
0.0
100
AcDbText
  0
TEXT
  5
44C
330
1F
100
AcDbEntity
  8
LAYER0064
 62
     7
100
AcDbText
 10
2535.000000000001
 20
-189.3749999999986
 30
0.0
 40
56.25
  1
294.0　mm
 41
1.094294842537654
  7
FDASTYLE1
 72
     5
 11
2940.000000000001
 21
-189.3749999999986
 31
0.0
100
AcDbText
  0
TEXT
  5
44D
330
1F
100
AcDbEntity
  8
LAYER0064
 62
     7
100
AcDbText
 10
2484.375000000001
 20
-286.8749999999977
 30
0.0
 40
56.25
  1
1973.8　mm
 41
1.107872398685652
  7
FDASTYLE1
 72
     5
 11
2940.000000000001
 21
-286.8749999999977
 31
0.0
100
AcDbText
  0
TEXT
  5
44E
330
1F
100
AcDbEntity
  8
LAYER0064
 62
     7
100
AcDbText
 10
2484.375000000001
 20
-384.3749999999977
 30
0.0
 40
56.25
  1
1240.2　mm
 41
1.107872398685652
  7
FDASTYLE1
 72
     5
 11
2940.000000000001
 21
-384.3749999999977
 31
0.0
100
AcDbText
  0
TEXT
  5
44F
330
1F
100
AcDbEntity
  8
LAYER0064
 62
     7
100
AcDbText
 10
2535.000000000001
 20
-481.8749999999977
 30
0.0
 40
56.25
  1
830.2　mm
 41
1.094294842537654
  7
FDASTYLE1
 72
     5
 11
2940.000000000001
 21
-481.8749999999977
 31
0.0
100
AcDbText
  0
TEXT
  5
450
330
1F
100
AcDbEntity
  8
LAYER0064
 62
     7
100
AcDbText
 10
2535.000000000001
 20
-774.3749999999977
 30
0.0
 40
56.25
  1
572.7　mm
 41
1.094294842537654
  7
FDASTYLE1
 72
     5
 11
2940.000000000001
 21
-774.3749999999977
 31
0.0
100
AcDbText
  0
TEXT
  5
451
330
1F
100
AcDbEntity
  8
LAYER0064
 62
     7
100
AcDbText
 10
2324.375
 20
-969.3749999999982
 30
0.0
 40
56.25
  1
I
 41
1.681818181818182
  7
FDASTYLE1
 72
     5
 11
2380.625
 21
-969.3749999999982
 31
0.0
100
AcDbText
  0
TEXT
  5
452
330
1F
100
AcDbEntity
  8
LAYER0064
 62
     7
100
AcDbText
 10
2517.812500000001
 20
-969.3749999999977
 30
0.0
 40
56.25
  1
マグネット・有
 41
0.6173925838728663
  7
FDASTYLE1
 72
     5
 11
2872.187500000001
 21
-969.3749999999977
 31
0.0
100
AcDbText
  0
ARC
  5
453
330
1F
100
AcDbEntity
  8
LAYER0144
 62
     7
100
AcDbCircle
 10
-1138.276399631684
 20
128.3017782100028
 30
0.0
 40
247.6
100
AcDbArc
 50
89.99999999998136
 51
149.9999999999809
  0
ARC
  5
454
330
1F
100
AcDbEntity
  8
LAYER0144
 62
     7
100
AcDbCircle
 10
-1138.276399631684
 20
128.3017782100028
 30
0.0
 40
409.5999960739083
100
AcDbArc
 50
89.99999999998136
 51
149.9999999999809
  0
LINE
  5
455
330
1F
100
AcDbEntity
  8
LAYER0144
 62
     7
100
AcDbLine
 10
-1138.27639963155
 20
537.901774283911
 30
0.0
 11
-793.27639963155
 21
537.9017742838051
 31
0.0
  0
LINE
  5
456
330
1F
100
AcDbEntity
  8
LAYER0144
 62
     7
100
AcDbLine
 10
-1103.276399631635
 20
277.9017742839028
 30
0.0
 11
-743.2763996316346
 21
277.9017742837889
 31
0.0
  0
LINE
  5
457
330
1F
100
AcDbEntity
  8
LAYER0144
 62
     7
100
AcDbLine
 10
-1103.276399631635
 20
277.9017742839028
 30
0.0
 11
-1138.276399631603
 21
375.9017782100029
 31
0.0
  0
LINE
  5
458
330
1F
100
AcDbEntity
  8
LAYER0144
 62
     7
100
AcDbLine
 10
-748.2763996315673
 20
492.9017742837905
 30
0.0
 11
-793.27639963155
 21
537.9017742838051
 31
0.0
  0
LINE
  5
459
330
1F
100
AcDbEntity
  8
LAYER0144
 62
     7
100
AcDbLine
 10
-748.2763996315673
 20
492.9017742837905
 30
0.0
 11
-743.2763996316346
 21
277.9017742837889
 31
0.0
  0
LINE
  5
45A
330
1F
100
AcDbEntity
  8
LAYER0144
  6
CENTER
 62
     9
100
AcDbLine
 10
-1088.276399631684
 20
128.3017782099865
 30
0.0
 11
-1188.276399631684
 21
128.3017782100823
 31
0.0
  0
LINE
  5
45B
330
1F
100
AcDbEntity
  8
LAYER0144
  6
CENTER
 62
     9
100
AcDbLine
 10
-1094.97512944247
 20
103.3017782099887
 30
0.0
 11
-1527.987831334603
 21
353.3017782103832
 31
0.0
  0
LINE
  5
45C
330
1F
100
AcDbEntity
  8
LAYER0144
  6
CENTER
 62
     9
100
AcDbLine
 10
-1138.276399631699
 20
78.30177821000277
 30
0.0
 11
-1138.276399631618
 21
578.3017782101695
 31
0.0
  0
CIRCLE
  5
45D
330
1F
100
AcDbEntity
  8
0
  6
CENTER
 62
     2
100
AcDbCircle
 10
-948.2763996316182
 20
400.9017742838538
 30
0.0
 40
43.90576900594158
  0
ARC
  5
45E
330
1F
100
AcDbEntity
  8
0
  6
CENTER
 62
     2
100
AcDbCircle
 10
-1138.276399631684
 20
128.3017782100028
 30
0.0
 40
293.7242940705827
100
AcDbArc
 50
90.0
 51
149.9999999999516
  0
ARC
  5
45F
330
1F
100
AcDbEntity
  8
0
  6
CENTER
 62
     2
100
AcDbCircle
 10
-1138.276399631684
 20
128.3017782100028
 30
0.0
 40
360.7243611679221
100
AcDbArc
 50
90.0
 51
149.9999999999524
  0
LINE
  5
460
330
1F
100
AcDbEntity
  8
0
  6
CENTER
 62
     2
100
AcDbLine
 10
-1138.276399631625
 20
489.0261393779249
 30
0.0
 11
-938.5628502278487
 21
443.7195685986434
 31
0.0
  0
LINE
  5
461
330
1F
100
AcDbEntity
  8
0
  6
CENTER
 62
     2
100
AcDbLine
 10
-1138.276399631636
 20
422.0260722805855
 30
0.0
 11
-1103.27639963164
 21
422.0260722805855
 31
0.0
  0
LINE
  5
462
330
1F
100
AcDbEntity
  8
0
  6
CENTER
 62
     2
100
AcDbLine
 10
-1103.27639963164
 20
422.0260722805855
 30
0.0
 11
-966.1771026375272
 21
360.8108603020382
 31
0.0
  0
LINE
  5
463
330
1F
100
AcDbEntity
  8
0
 62
     3
100
AcDbLine
 10
-1613.276399631618
 20
610.9017742838538
 30
0.0
 11
-1613.276399631618
 21
50.9017742838538
 31
0.0
  0
LINE
  5
464
330
1F
100
AcDbEntity
  8
0
 62
     3
100
AcDbLine
 10
-523.2763996316182
 20
610.9017742838538
 30
0.0
 11
-523.2763996316182
 21
50.9017742838538
 31
0.0
  0
LINE
  5
465
330
1F
100
AcDbEntity
  8
0
 62
     3
100
AcDbLine
 10
-1613.276399631618
 20
50.9017742838538
 30
0.0
 11
-523.2763996316182
 21
50.9017742838538
 31
0.0
  0
LINE
  5
466
330
1F
100
AcDbEntity
  8
0
 62
     3
100
AcDbLine
 10
-1613.276399631618
 20
610.9017742838538
 30
0.0
 11
-523.2763996316182
 21
610.9017742838538
 31
0.0
  0
LINE
  5
467
330
1F
100
AcDbEntity
  8
0
 62
     2
100
AcDbLine
 10
-1742.275600282408
 20
-1016.785272079403
 30
0.0
 11
-1867.275600282408
 21
-1016.785272079403
 31
0.0
  0
INSERT
  5
468
330
1F
100
AcDbEntity
  8
0
 62
     2
100
AcDbBlockReference
  2
_OPEN30
 10
-1742.275600282408
 20
-1016.785272079403
 30
0.0
 41
29.99997611445993
 42
30.00008592479957
 50
360.0
  0
CIRCLE
  5
469
330
1F
100
AcDbEntity
  8
0
 62
     2
100
AcDbCircle
 10
-1917.275600282408
 20
-1016.785272079403
 30
0.0
 40
50.0
  0
LINE
  5
46A
330
1F
100
AcDbEntity
  8
LAYER0064
 62
     3
100
AcDbLine
 10
2292.5
 20
-112.4999999999986
 30
0.0
 11
2977.500000000001
 21
-112.4999999999986
 31
0.0
  0
LINE
  5
46B
330
1F
100
AcDbEntity
  8
LAYER0064
 62
     3
100
AcDbLine
 10
2292.5
 20
-404.9999999999977
 30
0.0
 11
2977.500000000001
 21
-404.9999999999977
 31
0.0
  0
LINE
  5
46C
330
1F
100
AcDbEntity
  8
LAYER0064
 62
     3
100
AcDbLine
 10
2292.5
 20
-502.4999999999977
 30
0.0
 11
2977.500000000001
 21
-502.4999999999977
 31
0.0
  0
LINE
  5
46D
330
1F
100
AcDbEntity
  8
LAYER0064
 62
     3
100
AcDbLine
 10
2292.5
 20
-599.9999999999977
 30
0.0
 11
2977.500000000001
 21
-599.9999999999977
 31
0.0
  0
LINE
  5
46E
330
1F
100
AcDbEntity
  8
LAYER0064
 62
     3
100
AcDbLine
 10
2292.5
 20
-14.99999999999864
 30
0.0
 11
2977.500000000001
 21
-14.99999999999864
 31
0.0
  0
LINE
  5
46F
330
1F
100
AcDbEntity
  8
LAYER0064
 62
     3
100
AcDbLine
 10
2292.5
 20
-209.9999999999986
 30
0.0
 11
2977.500000000001
 21
-209.9999999999986
 31
0.0
  0
LINE
  5
470
330
1F
100
AcDbEntity
  8
LAYER0064
 62
     3
100
AcDbLine
 10
2292.5
 20
-307.4999999999977
 30
0.0
 11
2977.500000000001
 21
-307.4999999999977
 31
0.0
  0
LINE
  5
471
330
1F
100
AcDbEntity
  8
LAYER0064
 62
     3
100
AcDbLine
 10
2292.5
 20
-697.4999999999977
 30
0.0
 11
2977.500000000001
 21
-697.4999999999977
 31
0.0
  0
LINE
  5
472
330
1F
100
AcDbEntity
  8
LAYER0064
 62
     3
100
AcDbLine
 10
2292.5
 20
-794.9999999999977
 30
0.0
 11
2977.500000000001
 21
-794.9999999999977
 31
0.0
  0
LINE
  5
473
330
1F
100
AcDbEntity
  8
LAYER0064
 62
     3
100
AcDbLine
 10
2292.5
 20
-892.4999999999977
 30
0.0
 11
2977.500000000001
 21
-892.4999999999977
 31
0.0
  0
LINE
  5
474
330
1F
100
AcDbEntity
  8
LAYER0064
 62
     3
100
AcDbLine
 10
2292.5
 20
-14.99999999999864
 30
0.0
 11
2292.5
 21
-989.9999999999977
 31
0.0
  0
LINE
  5
475
330
1F
100
AcDbEntity
  8
LAYER0064
 62
     3
100
AcDbLine
 10
2412.5
 20
-112.4999999999986
 30
0.0
 11
2412.5
 21
-989.9999999999977
 31
0.0
  0
LINE
  5
476
330
1F
100
AcDbEntity
  8
LAYER0064
 62
     3
100
AcDbLine
 10
2977.500000000001
 20
-14.99999999999864
 30
0.0
 11
2977.500000000001
 21
-989.9999999999977
 31
0.0
  0
LINE
  5
477
330
1F
100
AcDbEntity
  8
LAYER0064
 62
     3
100
AcDbLine
 10
2292.5
 20
-989.9999999999977
 30
0.0
 11
2977.500000000001
 21
-989.9999999999977
 31
0.0
  0
VIEWPORT
  5
32
330
1B
100
AcDbEntity
 67
     1
  8
0
100
AcDbViewport
 10
450.0
 20
-0.0000000000004547
 30
0.0
 40
15165.0
 41
8730.0
 68
     1
 69
     1
1001
ACAD
1000
MVIEW
1002
{
1070
    16
1010
0.0
1020
0.0
1030
0.0
1010
0.0
1020
0.0
1030
1.0
1040
0.0
1040
8730.0
1040
450.0
1040
-0.0000000000004547
1040
50.0
1040
0.0
1040
0.0
1070
     0
1070
   100
1070
     0
1070
     1
1070
     0
1070
     0
1070
     0
1070
     0
1040
0.0
1040
0.0
1040
0.0
1040
1.0
1040
1.0
1040
0.0
1040
0.0
1070
     0
1002
{
1002
}
1002
}
  0
ENDSEC
  0
SECTION
  2
OBJECTS
  0
DICTIONARY
  5
C
330
0
100
AcDbDictionary
  3
ACAD_GROUP
350
D
  3
ACAD_LAYOUT
350
1A
  3
ACAD_MLINESTYLE
350
17
  3
ACAD_PLOTSETTINGS
350
19
  3
ACAD_TABLESTYLE
350
2A
  3
ACDBHEADERROUNDTRIPXREC
350
478
  3
ACDBVARIABLEDICTIONARY
350
2C
  0
DICTIONARY
  5
498
330
29
100
AcDbDictionary
280
     1
  3
ACAD_XREC_ROUNDTRIP
360
499
  0
DICTIONARY
  5
D
102
{ACAD_REACTORS
330
C
102
}
330
C
100
AcDbDictionary
  0
DICTIONARY
  5
1A
102
{ACAD_REACTORS
330
C
102
}
330
C
100
AcDbDictionary
  0
DICTIONARY
  5
17
102
{ACAD_REACTORS
330
C
102
}
330
C
100
AcDbDictionary
  3
STANDARD
350
18
  0
DICTIONARY
  5
19
102
{ACAD_REACTORS
330
C
102
}
330
C
100
AcDbDictionary
  0
DICTIONARY
  5
2A
102
{ACAD_REACTORS
330
C
102
}
330
C
100
AcDbDictionary
  3
STANDARD
350
2B
  0
DICTIONARY
  5
478
102
{ACAD_REACTORS
330
C
102
}
330
C
100
AcDbDictionary
  3
CEPSNTYPE
350
481
  3
DIMSTYLEDATA
350
497
  3
FINGERPRINTGUID
350
482
  3
HYPERLINKBASE
350
47B
  3
INSUNITS
350
480
  3
LAYOUTDICT
350
47D
  3
LWETCUNION
350
47F
  3
PLOTSETDICT
350
47E
  3
PSVPSCALE
350
484
  3
PUCSBASE
350
487
  3
PUCSORGBACK
350
48D
  3
PUCSORGBOTTOM
350
489
  3
PUCSORGFRONT
350
48C
  3
PUCSORGLEFT
350
48A
  3
PUCSORGRIGHT
350
48B
  3
PUCSORGTOP
350
488
  3
PUCSORTHOREF
350
485
  3
PUCSORTHOVIEW
350
486
  3
STYLESHEET
350
47C
  3
TSTACKALIGN
350
479
  3
TSTACKSIZE
350
47A
  3
UCSBASE
350
490
  3
UCSORGBACK
350
496
  3
UCSORGBOTTOM
350
492
  3
UCSORGFRONT
350
495
  3
UCSORGLEFT
350
493
  3
UCSORGRIGHT
350
494
  3
UCSORGTOP
350
491
  3
UCSORTHOREF
350
48E
  3
UCSORTHOVIEW
350
48F
  3
VERSIONGUID
350
483
  0
DICTIONARY
  5
2C
102
{ACAD_REACTORS
330
C
102
}
330
C
100
AcDbDictionary
  3
CTABLESTYLE
350
2D
  0
XRECORD
  5
499
102
{ACAD_REACTORS
330
498
102
}
330
498
100
AcDbXrecord
102
UCS
 74
     0
 71
     1
 10
0.0
 20
0.0
 30
0.0
 10
1.0
 20
0.0
 30
0.0
 10
0.0
 20
1.0
 30
0.0
146
0.0
 79
     0
102
VIEW
281
     0
  0
MLINESTYLE
  5
18
102
{ACAD_REACTORS
330
17
102
}
330
17
100
AcDbMlineStyle
  2
Standard
 70
     0
  3

 62
   256
 51
90.0
 52
90.0
 71
     2
 49
0.5
 62
   256
  6
BYLAYER
 49
-0.5
 62
   256
  6
BYLAYER
  0
TABLESTYLE
  5
2B
102
{ACAD_REACTORS
330
2A
102
}
330
2A
100
AcDbTableStyle
  3
Standard
 70
     0
 71
     0
 40
0.06
 41
0.06
280
     0
281
     0
  7
STANDARD
140
0.18
170
     2
 62
     0
 63
     7
283
     0
274
    -2
284
     1
 64
     0
275
    -2
285
     1
 65
     0
276
    -2
286
     1
 66
     0
277
    -2
287
     1
 67
     0
278
    -2
288
     1
 68
     0
279
    -2
289
     1
 69
     0
  7
STANDARD
140
0.25
170
     5
 62
     0
 63
     7
283
     0
274
    -2
284
     1
 64
     0
275
    -2
285
     1
 65
     0
276
    -2
286
     1
 66
     0
277
    -2
287
     1
 67
     0
278
    -2
288
     1
 68
     0
279
    -2
289
     1
 69
     0
  7
STANDARD
140
0.18
170
     5
 62
     0
 63
     7
283
     0
274
    -2
284
     1
 64
     0
275
    -2
285
     1
 65
     0
276
    -2
286
     1
 66
     0
277
    -2
287
     1
 67
     0
278
    -2
288
     1
 68
     0
279
    -2
289
     1
 69
     0
  0
XRECORD
  5
481
102
{ACAD_REACTORS
330
478
102
}
330
478
100
AcDbXrecord
 90
        0
  0
XRECORD
  5
497
102
{ACAD_REACTORS
330
478
102
}
330
478
100
AcDbXrecord
1000
DSTYLE
1002
{
1070
   171
 70
     2
1070
   143
 40
25.4
1070
   274
 70
     2
1070
    41
 40
0.18
1070
   141
 40
0.09
1070
   271
 70
     4
1070
    43
 40
0.38
1070
    44
 40
0.18
1070
   278
 70
    46
1070
    42
 40
0.0625
1070
   147
 40
0.09
1070
    77
 70
     3
1070
   272
 70
     4
1070
    73
 70
     1
1070
   172
 70
     0
1070
    74
 70
     1
1070
   283
 70
     1
1070
   340
340
11
1070
   140
 40
0.18
1070
   284
 70
     0
1070
    78
 70
     0
1002
}
  0
XRECORD
  5
482
102
{ACAD_REACTORS
330
478
102
}
330
478
100
AcDbXrecord
  1
{FAEB1C30-E019-11D5-929B-00C0DF256EC4}
  0
XRECORD
  5
47B
102
{ACAD_REACTORS
330
478
102
}
330
478
100
AcDbXrecord
  1

  0
XRECORD
  5
480
102
{ACAD_REACTORS
330
478
102
}
330
478
100
AcDbXrecord
 90
        4
  0
XRECORD
  5
47D
102
{ACAD_REACTORS
330
478
102
}
330
478
100
AcDbXrecord
340
1A
  0
XRECORD
  5
47F
102
{ACAD_REACTORS
330
478
102
}
330
478
100
AcDbXrecord
 90
    10240
  0
XRECORD
  5
47E
102
{ACAD_REACTORS
330
478
102
}
330
478
100
AcDbXrecord
340
19
  0
XRECORD
  5
484
102
{ACAD_REACTORS
330
478
102
}
330
478
100
AcDbXrecord
 40
0.0
  0
XRECORD
  5
487
102
{ACAD_REACTORS
330
478
102
}
330
478
100
AcDbXrecord
340
0
  0
XRECORD
  5
48D
102
{ACAD_REACTORS
330
478
102
}
330
478
100
AcDbXrecord
 10
0.0
 20
0.0
 30
0.0
  0
XRECORD
  5
489
102
{ACAD_REACTORS
330
478
102
}
330
478
100
AcDbXrecord
 10
0.0
 20
0.0
 30
0.0
  0
XRECORD
  5
48C
102
{ACAD_REACTORS
330
478
102
}
330
478
100
AcDbXrecord
 10
0.0
 20
0.0
 30
0.0
  0
XRECORD
  5
48A
102
{ACAD_REACTORS
330
478
102
}
330
478
100
AcDbXrecord
 10
0.0
 20
0.0
 30
0.0
  0
XRECORD
  5
48B
102
{ACAD_REACTORS
330
478
102
}
330
478
100
AcDbXrecord
 10
0.0
 20
0.0
 30
0.0
  0
XRECORD
  5
488
102
{ACAD_REACTORS
330
478
102
}
330
478
100
AcDbXrecord
 10
0.0
 20
0.0
 30
0.0
  0
XRECORD
  5
485
102
{ACAD_REACTORS
330
478
102
}
330
478
100
AcDbXrecord
340
0
  0
XRECORD
  5
486
102
{ACAD_REACTORS
330
478
102
}
330
478
100
AcDbXrecord
 70
     0
  0
XRECORD
  5
47C
102
{ACAD_REACTORS
330
478
102
}
330
478
100
AcDbXrecord
  1

  0
XRECORD
  5
479
102
{ACAD_REACTORS
330
478
102
}
330
478
100
AcDbXrecord
 90
        1
  0
XRECORD
  5
47A
102
{ACAD_REACTORS
330
478
102
}
330
478
100
AcDbXrecord
 90
       70
  0
XRECORD
  5
490
102
{ACAD_REACTORS
330
478
102
}
330
478
100
AcDbXrecord
340
0
  0
XRECORD
  5
496
102
{ACAD_REACTORS
330
478
102
}
330
478
100
AcDbXrecord
 10
0.0
 20
0.0
 30
0.0
  0
XRECORD
  5
492
102
{ACAD_REACTORS
330
478
102
}
330
478
100
AcDbXrecord
 10
0.0
 20
0.0
 30
0.0
  0
XRECORD
  5
495
102
{ACAD_REACTORS
330
478
102
}
330
478
100
AcDbXrecord
 10
0.0
 20
0.0
 30
0.0
  0
XRECORD
  5
493
102
{ACAD_REACTORS
330
478
102
}
330
478
100
AcDbXrecord
 10
0.0
 20
0.0
 30
0.0
  0
XRECORD
  5
494
102
{ACAD_REACTORS
330
478
102
}
330
478
100
AcDbXrecord
 10
0.0
 20
0.0
 30
0.0
  0
XRECORD
  5
491
102
{ACAD_REACTORS
330
478
102
}
330
478
100
AcDbXrecord
 10
0.0
 20
0.0
 30
0.0
  0
XRECORD
  5
48E
102
{ACAD_REACTORS
330
478
102
}
330
478
100
AcDbXrecord
340
0
  0
XRECORD
  5
48F
102
{ACAD_REACTORS
330
478
102
}
330
478
100
AcDbXrecord
 70
     0
  0
XRECORD
  5
483
102
{ACAD_REACTORS
330
478
102
}
330
478
100
AcDbXrecord
  1
{FAEB1C32-E019-11D5-929B-00C0DF256EC4}
  0
DICTIONARYVAR
  5
2D
102
{ACAD_REACTORS
330
2C
102
}
330
2C
100
DictionaryVariables
280
     0
  1
Standard
  0
ENDSEC
  0
EOF
