  0
SECTION
  2
HEADER
  9
$ACADVER
  1
AC1014
  9
$ACADMAINTVER
 70
     9
  9
$DWGCODEPAGE
  3
ANSI_932
  9
$INSBASE
 10
0.0
 20
0.0
 30
0.0
  9
$EXTMIN
 10
-7132.5
 20
-4365.000000000001
 30
0.0
  9
$EXTMAX
 10
8032.5
 20
4365.0
 30
0.0
  9
$LIMMIN
 10
-2227.5
 20
-1575.0
  9
$LIMMAX
 10
2227.5
 20
1575.0
  9
$ORTHOMODE
 70
     0
  9
$REGENMODE
 70
     0
  9
$FILLMODE
 70
     1
  9
$QTEXTMODE
 70
     0
  9
$MIRRTEXT
 70
     1
  9
$DRAGMODE
 70
     2
  9
$LTSCALE
 40
15.0
  9
$OSMODE
 70
    37
  9
$ATTMODE
 70
     1
  9
$TEXTSIZE
 40
0.2
  9
$TRACEWID
 40
0.05
  9
$TEXTSTYLE
  7
STANDARD
  9
$CLAYER
  8
0
  9
$CELTYPE
  6
BYLAYER
  9
$CECOLOR
 62
   256
  9
$CELTSCALE
 40
1.0
  9
$DELOBJ
 70
     1
  9
$DISPSILH
 70
     0
  9
$DIMSCALE
 40
1.0
  9
$DIMASZ
 40
0.18
  9
$DIMEXO
 40
0.0625
  9
$DIMDLI
 40
0.38
  9
$DIMRND
 40
0.0
  9
$DIMDLE
 40
0.0
  9
$DIMEXE
 40
0.18
  9
$DIMTP
 40
0.0
  9
$DIMTM
 40
0.0
  9
$DIMTXT
 40
0.18
  9
$DIMCEN
 40
0.09
  9
$DIMTSZ
 40
0.0
  9
$DIMTOL
 70
     0
  9
$DIMLIM
 70
     0
  9
$DIMTIH
 70
     1
  9
$DIMTOH
 70
     1
  9
$DIMSE1
 70
     0
  9
$DIMSE2
 70
     0
  9
$DIMTAD
 70
     3
  9
$DIMZIN
 70
     0
  9
$DIMBLK
  1

  9
$DIMASO
 70
     1
  9
$DIMSHO
 70
     1
  9
$DIMPOST
  1

  9
$DIMAPOST
  1

  9
$DIMALT
 70
     0
  9
$DIMALTD
 70
     2
  9
$DIMALTF
 40
25.4
  9
$DIMLFAC
 40
1.0
  9
$DIMTOFL
 70
     0
  9
$DIMTVP
 40
0.0
  9
$DIMTIX
 70
     0
  9
$DIMSOXD
 70
     0
  9
$DIMSAH
 70
     0
  9
$DIMBLK1
  1

  9
$DIMBLK2
  1

  9
$DIMSTYLE
  2
STANDARD
  9
$DIMCLRD
 70
     0
  9
$DIMCLRE
 70
     0
  9
$DIMCLRT
 70
     0
  9
$DIMTFAC
 40
1.0
  9
$DIMGAP
 40
0.09
  9
$DIMJUST
 70
     0
  9
$DIMSD1
 70
     0
  9
$DIMSD2
 70
     0
  9
$DIMTOLJ
 70
     1
  9
$DIMTZIN
 70
     0
  9
$DIMALTZ
 70
     0
  9
$DIMALTTZ
 70
     0
  9
$DIMFIT
 70
     3
  9
$DIMUPT
 70
     0
  9
$DIMUNIT
 70
     2
  9
$DIMDEC
 70
     4
  9
$DIMTDEC
 70
     4
  9
$DIMALTU
 70
     2
  9
$DIMALTTD
 70
     2
  9
$DIMTXSTY
  7
STANDARD
  9
$DIMAUNIT
 70
     0
  9
$LUNITS
 70
     2
  9
$LUPREC
 70
     4
  9
$SKETCHINC
 40
0.1
  9
$FILLETRAD
 40
0.5
  9
$AUNITS
 70
     0
  9
$AUPREC
 70
     0
  9
$MENU
  1
.
  9
$ELEVATION
 40
0.0
  9
$PELEVATION
 40
0.0
  9
$THICKNESS
 40
0.0
  9
$LIMCHECK
 70
     1
  9
$CHAMFERA
 40
0.5
  9
$CHAMFERB
 40
0.5
  9
$CHAMFERC
 40
1.0
  9
$CHAMFERD
 40
0.0
  9
$SKPOLY
 70
     0
  9
$TDCREATE
 40
0.0
  9
$TDUPDATE
 40
2454270.683209282
  9
$TDINDWG
 40
0.0000000116
  9
$TDUSRTIMER
 40
0.0000000116
  9
$USRTIMER
 70
     1
  9
$ANGBASE
 50
0.0
  9
$ANGDIR
 70
     0
  9
$PDMODE
 70
     0
  9
$PDSIZE
 40
1.0
  9
$PLINEWID
 40
0.0
  9
$COORDS
 70
     1
  9
$SPLFRAME
 70
     0
  9
$SPLINETYPE
 70
     6
  9
$SPLINESEGS
 70
     8
  9
$ATTDIA
 70
     0
  9
$ATTREQ
 70
     1
  9
$HANDLING
 70
     1
  9
$HANDSEED
  5
41F
  9
$SURFTAB1
 70
     6
  9
$SURFTAB2
 70
     6
  9
$SURFTYPE
 70
     6
  9
$SURFU
 70
     6
  9
$SURFV
 70
     6
  9
$UCSNAME
  2

  9
$UCSORG
 10
0.0
 20
0.0
 30
0.0
  9
$UCSXDIR
 10
1.0
 20
0.0
 30
0.0
  9
$UCSYDIR
 10
0.0
 20
1.0
 30
0.0
  9
$PUCSNAME
  2

  9
$PUCSORG
 10
0.0
 20
0.0
 30
0.0
  9
$PUCSXDIR
 10
1.0
 20
0.0
 30
0.0
  9
$PUCSYDIR
 10
0.0
 20
1.0
 30
0.0
  9
$USERI1
 70
     0
  9
$USERI2
 70
     0
  9
$USERI3
 70
     0
  9
$USERI4
 70
     0
  9
$USERI5
 70
     0
  9
$USERR1
 40
0.0
  9
$USERR2
 40
0.0
  9
$USERR3
 40
0.0
  9
$USERR4
 40
0.0
  9
$USERR5
 40
0.0
  9
$WORLDVIEW
 70
     1
  9
$SHADEDGE
 70
     3
  9
$SHADEDIF
 70
    70
  9
$TILEMODE
 70
     1
  9
$MAXACTVP
 70
    64
  9
$PINSBASE
 10
0.0
 20
0.0
 30
0.0
  9
$PLIMCHECK
 70
     1
  9
$PEXTMIN
 10
1.000000000000000E+20
 20
1.000000000000000E+20
 30
1.000000000000000E+20
  9
$PEXTMAX
 10
-1.000000000000000E+20
 20
-1.000000000000000E+20
 30
-1.000000000000000E+20
  9
$PLIMMIN
 10
0.0
 20
0.0
  9
$PLIMMAX
 10
12.0
 20
9.0
  9
$UNITMODE
 70
     0
  9
$VISRETAIN
 70
     0
  9
$PLINEGEN
 70
     1
  9
$PSLTSCALE
 70
     0
  9
$TREEDEPTH
 70
  3020
  9
$PICKSTYLE
 70
     1
  9
$CMLSTYLE
  2
STANDARD
  9
$CMLJUST
 70
     0
  9
$CMLSCALE
 40
1.0
  9
$PROXYGRAPHICS
 70
     0
  9
$MEASUREMENT
 70
     1
  0
ENDSEC
  0
SECTION
  2
CLASSES
  0
CLASS
  1
ACDBDICTIONARYWDFLT
  2
AcDbDictionaryWithDefault
  3
ObjectDBX Classes
 90
        0
280
     0
281
     0
  0
CLASS
  1
TABLESTYLE
  2
AcDbTableStyle
  3
ObjectDBX Classes
 90
     2047
280
     0
281
     0
  0
CLASS
  1
DICTIONARYVAR
  2
AcDbDictionaryVar
  3
ObjectDBX Classes
 90
        0
280
     0
281
     0
  0
CLASS
  1
XRECORD
  2
AcDbXrecord
  3
AutoCAD 2000
 90
        0
280
     0
281
     0
  0
CLASS
  1
LWPOLYLINE
  2
AcDbPolyline
  3
AutoCAD 2000
 90
        0
280
     0
281
     1
  0
CLASS
  1
HATCH
  2
AcDbHatch
  3
AutoCAD 2000
 90
        0
280
     0
281
     1
  0
CLASS
  1
ACDBPLACEHOLDER
  2
AcDbPlaceHolder
  3
ObjectDBX Classes
 90
        0
280
     0
281
     0
  0
CLASS
  1
LAYOUT
  2
AcDbLayout
  3
ObjectDBX Classes
 90
        0
280
     0
281
     0
  0
ENDSEC
  0
SECTION
  2
TABLES
  0
TABLE
  2
VPORT
  5
8
330
0
100
AcDbSymbolTable
 70
     2
  0
VPORT
  5
29
102
{ACAD_XDICTIONARY
360
41D
102
}
330
8
100
AcDbSymbolTableRecord
100
AcDbViewportTableRecord
  2
*ACTIVE
 70
     0
 10
0.0
 20
0.0
 11
1.0
 21
1.0
 12
450.0000000000001
 22
0.0000000000002274
 13
0.0
 23
0.0
 14
0.5
 24
0.5
 15
0.5
 25
0.5
 16
0.0
 26
0.0
 36
1.0
 17
0.0
 27
0.0
 37
0.0
 40
2968.200000000001
 41
1.737113402061855
 42
50.0
 43
0.0
 44
0.0
 50
0.0
 51
0.0
 71
     0
 72
   100
 73
     1
 74
     1
 75
     0
 76
     0
 77
     0
 78
     0
  0
ENDTAB
  0
TABLE
  2
LTYPE
  5
5
330
0
100
AcDbSymbolTable
 70
    28
  0
LTYPE
  5
14
330
5
100
AcDbSymbolTableRecord
100
AcDbLinetypeTableRecord
  2
BYBLOCK
 70
     0
  3

 72
    65
 73
     0
 40
0.0
  0
LTYPE
  5
15
330
5
100
AcDbSymbolTableRecord
100
AcDbLinetypeTableRecord
  2
BYLAYER
 70
     0
  3

 72
    65
 73
     0
 40
0.0
  0
LTYPE
  5
16
330
5
100
AcDbSymbolTableRecord
100
AcDbLinetypeTableRecord
  2
CONTINUOUS
 70
     0
  3
Solid line
 72
    65
 73
     0
 40
0.0
  0
LTYPE
  5
34
330
5
100
AcDbSymbolTableRecord
100
AcDbLinetypeTableRecord
  2
HIDDENX2
 70
     0
  3
CADPAC LINETYPE
 72
    65
 73
     2
 40
5.38043478260867
 49
4.035326086956502
 74
     0
 49
-1.345108695652167
 74
     0
  0
LTYPE
  5
35
330
5
100
AcDbSymbolTableRecord
100
AcDbLinetypeTableRecord
  2
HIDDEN
 70
     0
  3
CADPAC LINETYPE
 72
    65
 73
     2
 40
4.035326086956502
 49
2.690217391304335
 74
     0
 49
-1.345108695652167
 74
     0
  0
LTYPE
  5
36
330
5
100
AcDbSymbolTableRecord
100
AcDbLinetypeTableRecord
  2
HIDDEN2
 70
     0
  3
CADPAC LINETYPE
 72
    65
 73
     2
 40
3.362771739130419
 49
2.017663043478251
 74
     0
 49
-1.345108695652167
 74
     0
  0
LTYPE
  5
37
330
5
100
AcDbSymbolTableRecord
100
AcDbLinetypeTableRecord
  2
DASHED
 70
     0
  3
CADPAC LINETYPE
 72
    65
 73
     2
 40
3.766304347826038
 49
2.690217391304335
 74
     0
 49
-1.076086956521704
 74
     0
  0
LTYPE
  5
38
330
5
100
AcDbSymbolTableRecord
100
AcDbLinetypeTableRecord
  2
DASHED2
 70
     0
  3
CADPAC LINETYPE
 72
    65
 73
     2
 40
2.42119565217384
 49
1.614130434782571
 74
     0
 49
-0.80706521739127
 74
     0
  0
LTYPE
  5
39
330
5
100
AcDbSymbolTableRecord
100
AcDbLinetypeTableRecord
  2
DASHEDX2
 70
     0
  3
CADPAC LINETYPE
 72
    65
 73
     2
 40
6.456521739130373
 49
5.38043478260867
 74
     0
 49
-1.076086956521704
 74
     0
  0
LTYPE
  5
3A
330
5
100
AcDbSymbolTableRecord
100
AcDbLinetypeTableRecord
  2
DOTX2
 70
     0
  3
CADPAC LINETYPE
 72
    65
 73
     2
 40
2.353940217391255
 49
0.0
 74
     0
 49
-2.353940217391255
 74
     0
  0
LTYPE
  5
3B
330
5
100
AcDbSymbolTableRecord
100
AcDbLinetypeTableRecord
  2
DOT
 70
     0
  3
CADPAC LINETYPE
 72
    65
 73
     2
 40
1.883152173913004
 49
0.0
 74
     0
 49
-1.883152173913004
 74
     0
  0
LTYPE
  5
3C
330
5
100
AcDbSymbolTableRecord
100
AcDbLinetypeTableRecord
  2
DOT2
 70
     0
  3
CADPAC LINETYPE
 72
    65
 73
     2
 40
1.412364130434753
 49
0.0
 74
     0
 49
-1.412364130434753
 74
     0
  0
LTYPE
  5
3D
330
5
100
AcDbSymbolTableRecord
100
AcDbLinetypeTableRecord
  2
CENTERX2
 70
     0
  3
CADPAC LINETYPE
 72
    65
 73
     4
 40
8.070652173913004
 49
3.362771739130419
 74
     0
 49
-1.681385869565209
 74
     0
 49
1.345108695652167
 74
     0
 49
-1.681385869565209
 74
     0
  0
LTYPE
  5
3E
330
5
100
AcDbSymbolTableRecord
100
AcDbLinetypeTableRecord
  2
CENTER
 70
     0
  3
CADPAC LINETYPE
 72
    65
 73
     4
 40
6.18749999999997
 49
2.690217391304335
 74
     0
 49
-1.345108695652167
 74
     0
 49
0.8070652173913004
 74
     0
 49
-1.345108695652167
 74
     0
  0
LTYPE
  5
3F
330
5
100
AcDbSymbolTableRecord
100
AcDbLinetypeTableRecord
  2
CENTER2
 70
     0
  3
CADPAC LINETYPE
 72
    65
 73
     4
 40
4.304347826086936
 49
2.017663043478251
 74
     0
 49
-1.008831521739126
 74
     0
 49
0.2690217391304335
 74
     0
 49
-1.008831521739126
 74
     0
  0
LTYPE
  5
40
330
5
100
AcDbSymbolTableRecord
100
AcDbLinetypeTableRecord
  2
DASHDOTX2
 70
     0
  3
CADPAC LINETYPE
 72
    65
 73
     4
 40
12.91304347826084
 49
6.456521739130434
 74
     0
 49
-2.152173913043468
 74
     0
 49
2.152173913043468
 74
     0
 49
-2.152173913043468
 74
     0
  0
LTYPE
  5
41
330
5
100
AcDbSymbolTableRecord
100
AcDbLinetypeTableRecord
  2
DASHDOT
 70
     0
  3
CADPAC LINETYPE
 72
    65
 73
     4
 40
6.456521739130311
 49
3.228260869565201
 74
     0
 49
-1.076086956521704
 74
     0
 49
1.076086956521704
 74
     0
 49
-1.076086956521704
 74
     0
  0
LTYPE
  5
42
330
5
100
AcDbSymbolTableRecord
100
AcDbLinetypeTableRecord
  2
DASHDOT2
 70
     0
  3
CADPAC LINETYPE
 72
    65
 73
     4
 40
4.142934782608626
 49
2.421195652173901
 74
     0
 49
-0.8070652173912776
 74
     0
 49
0.1076086956521704
 74
     0
 49
-0.8070652173912776
 74
     0
  0
LTYPE
  5
43
330
5
100
AcDbSymbolTableRecord
100
AcDbLinetypeTableRecord
  2
DIVIDEX2
 70
     0
  3
CADPAC LINETYPE
 72
    65
 73
     6
 40
17.21739130434777
 49
6.456521739130434
 74
     0
 49
-2.152173913043468
 74
     0
 49
2.152173913043468
 74
     0
 49
-2.152173913043468
 74
     0
 49
2.152173913043468
 74
     0
 49
-2.152173913043468
 74
     0
  0
LTYPE
  5
44
330
5
100
AcDbSymbolTableRecord
100
AcDbLinetypeTableRecord
  2
DIVIDE
 70
     0
  3
CADPAC LINETYPE
 72
    65
 73
     6
 40
8.608695652173719
 49
3.228260869565201
 74
     0
 49
-1.076086956521704
 74
     0
 49
1.076086956521704
 74
     0
 49
-1.076086956521704
 74
     0
 49
1.076086956521704
 74
     0
 49
-1.076086956521704
 74
     0
  0
LTYPE
  5
45
330
5
100
AcDbSymbolTableRecord
100
AcDbLinetypeTableRecord
  2
DIVIDE2
 70
     0
  3
CADPAC LINETYPE
 72
    65
 73
     6
 40
6.456521739130289
 49
2.421195652173901
 74
     0
 49
-0.8070652173912776
 74
     0
 49
0.8070652173912776
 74
     0
 49
-0.8070652173912776
 74
     0
 49
0.8070652173912776
 74
     0
 49
-0.8070652173912776
 74
     0
  0
LTYPE
  5
46
330
5
100
AcDbSymbolTableRecord
100
AcDbLinetypeTableRecord
  2
BORDERX2
 70
     0
  3
CADPAC LINETYPE
 72
    65
 73
     6
 40
11.76970108695647
 49
3.362771739130419
 74
     0
 49
-1.681385869565209
 74
     0
 49
3.362771739130419
 74
     0
 49
-1.681385869565209
 74
     0
 49
0.0
 74
     0
 49
-1.681385869565209
 74
     0
  0
LTYPE
  5
47
330
5
100
AcDbSymbolTableRecord
100
AcDbLinetypeTableRecord
  2
BORDER
 70
     0
  3
CADPAC LINETYPE
 72
    65
 73
     6
 40
9.415760869565171
 49
2.690217391304335
 74
     0
 49
-1.345108695652167
 74
     0
 49
2.690217391304335
 74
     0
 49
-1.345108695652167
 74
     0
 49
0.0
 74
     0
 49
-1.345108695652167
 74
     0
  0
LTYPE
  5
48
330
5
100
AcDbSymbolTableRecord
100
AcDbLinetypeTableRecord
  2
BORDER2
 70
     0
  3
CADPAC LINETYPE
 72
    65
 73
     6
 40
6.994565217391179
 49
2.152173913043468
 74
     0
 49
-1.345108695652137
 74
     0
 49
0.80706521739127
 74
     0
 49
-1.345108695652137
 74
     0
 49
0.0
 74
     0
 49
-1.345108695652167
 74
     0
  0
LTYPE
  5
49
330
5
100
AcDbSymbolTableRecord
100
AcDbLinetypeTableRecord
  2
PHANTOMX2
 70
     0
  3
CADPAC LINETYPE
 72
    65
 73
     6
 40
10.08831521739126
 49
3.362771739130419
 74
     0
 49
-1.345108695652167
 74
     0
 49
1.345108695652167
 74
     0
 49
-1.345108695652167
 74
     0
 49
1.345108695652167
 74
     0
 49
-1.345108695652167
 74
     0
  0
LTYPE
  5
4A
330
5
100
AcDbSymbolTableRecord
100
AcDbLinetypeTableRecord
  2
PHANTOM
 70
     0
  3
CADPAC LINETYPE
 72
    65
 73
     6
 40
8.339673913043438
 49
2.690217391304335
 74
     0
 49
-1.345108695652167
 74
     0
 49
0.8070652173913004
 74
     0
 49
-1.345108695652167
 74
     0
 49
0.8070652173913004
 74
     0
 49
-1.345108695652167
 74
     0
  0
LTYPE
  5
4B
330
5
100
AcDbSymbolTableRecord
100
AcDbLinetypeTableRecord
  2
PHANTOM2
 70
     0
  3
CADPAC LINETYPE
 72
    65
 73
     6
 40
7.129076086956487
 49
2.017663043478251
 74
     0
 49
-1.345108695652167
 74
     0
 49
0.538043478260867
 74
     0
 49
-1.345108695652167
 74
     0
 49
0.538043478260867
 74
     0
 49
-1.345108695652167
 74
     0
  0
LTYPE
  5
4C
330
5
100
AcDbSymbolTableRecord
100
AcDbLinetypeTableRecord
  2
ACAD_ISO06W100
 70
     0
  3
CADPAC LINETYPE
 72
    65
 73
     8
 40
14.25815217391279
 49
6.456521739130434
 74
     0
 49
-1.345108695652137
 74
     0
 49
0.80706521739127
 74
     0
 49
-1.345108695652137
 74
     0
 49
0.80706521739127
 74
     0
 49
-1.345108695652137
 74
     0
 49
0.80706521739127
 74
     0
 49
-1.345108695652137
 74
     0
  0
LTYPE
  5
4D
330
5
100
AcDbSymbolTableRecord
100
AcDbLinetypeTableRecord
  2
ACAD_ISO13W100
 70
     0
  3
CADPAC LINETYPE
 72
    65
 73
     8
 40
10.76086956521734
 49
2.690217391304335
 74
     0
 49
-1.345108695652167
 74
     0
 49
2.690217391304335
 74
     0
 49
-1.345108695652167
 74
     0
 49
0.0
 74
     0
 49
-1.345108695652167
 74
     0
 49
0.0
 74
     0
 49
-1.345108695652167
 74
     0
  0
LTYPE
  5
4E
330
5
100
AcDbSymbolTableRecord
100
AcDbLinetypeTableRecord
  2
ACAD_ISO14W100
 70
     0
  3
CADPAC LINETYPE
 72
    65
 73
     8
 40
8.070652173913004
 49
2.690217391304335
 74
     0
 49
-1.345108695652167
 74
     0
 49
0.0
 74
     0
 49
-1.345108695652167
 74
     0
 49
0.0
 74
     0
 49
-1.345108695652167
 74
     0
 49
0.0
 74
     0
 49
-1.345108695652167
 74
     0
  0
ENDTAB
  0
TABLE
  2
LAYER
  5
2
330
0
100
AcDbSymbolTable
 70
     5
  0
LAYER
  5
10
330
2
100
AcDbSymbolTableRecord
100
AcDbLayerTableRecord
  2
0
 70
     0
 62
     7
  6
CONTINUOUS
  0
LAYER
  5
2F
330
2
100
AcDbSymbolTableRecord
100
AcDbLayerTableRecord
  2
LAYER0016
 70
     0
 62
     7
  6
CONTINUOUS
  0
LAYER
  5
30
330
2
100
AcDbSymbolTableRecord
100
AcDbLayerTableRecord
  2
LAYER0048
 70
     0
 62
     7
  6
CONTINUOUS
  0
LAYER
  5
31
330
2
100
AcDbSymbolTableRecord
100
AcDbLayerTableRecord
  2
LAYER0064
 70
     0
 62
     7
  6
CONTINUOUS
  0
LAYER
  5
32
330
2
100
AcDbSymbolTableRecord
100
AcDbLayerTableRecord
  2
LAYER0144
 70
     0
 62
     7
  6
CONTINUOUS
  0
ENDTAB
  0
TABLE
  2
STYLE
  5
3
330
0
100
AcDbSymbolTable
 70
     3
  0
STYLE
  5
11
330
3
100
AcDbSymbolTableRecord
100
AcDbTextStyleTableRecord
  2
STANDARD
 70
     0
 40
0.0
 41
1.0
 50
0.0
 71
     0
 42
0.2
  3
txt
  4

  0
STYLE
  5
2BD
330
3
100
AcDbSymbolTableRecord
100
AcDbTextStyleTableRecord
  2
FDASTYLE0
 70
     0
 40
45.0
 41
0.8000000000000032
 50
0.0
 71
     0
 42
0.2
  3
txt.shx
  4
bigfont
  0
STYLE
  5
34C
330
3
100
AcDbSymbolTableRecord
100
AcDbTextStyleTableRecord
  2
FDASTYLE1
 70
     0
 40
56.25
 41
0.77
 50
0.0
 71
     0
 42
0.2
  3
MSMINCHO.TTC
  4

1001
ACAD
1000
ＭＳ 明朝
1071
       34
  0
ENDTAB
  0
TABLE
  2
VIEW
  5
6
330
0
100
AcDbSymbolTable
 70
     0
  0
ENDTAB
  0
TABLE
  2
UCS
  5
7
330
0
100
AcDbSymbolTable
 70
     0
  0
ENDTAB
  0
TABLE
  2
APPID
  5
9
330
0
100
AcDbSymbolTable
 70
     2
  0
APPID
  5
12
330
9
100
AcDbSymbolTableRecord
100
AcDbRegAppTableRecord
  2
ACAD
 70
     0
  0
APPID
  5
2E
330
9
100
AcDbSymbolTableRecord
100
AcDbRegAppTableRecord
  2
DAFUSIONOUT
 70
     0
  0
ENDTAB
  0
TABLE
  2
DIMSTYLE
  5
A
330
0
100
AcDbSymbolTable
 70
     1
  0
DIMSTYLE
105
27
330
A
100
AcDbSymbolTableRecord
100
AcDbDimStyleTableRecord
  2
STANDARD
 70
     0
  3

  4

  5

  6

  7

 40
1.0
 41
0.18
 42
0.0625
 43
0.38
 44
0.18
 45
0.0
 46
0.0
 47
0.0
 48
0.0
140
0.18
141
0.09
142
0.0
143
25.4
144
1.0
145
0.0
146
1.0
147
0.09
 71
     0
 72
     0
 73
     1
 74
     1
 75
     0
 76
     0
 77
     0
 78
     0
170
     0
171
     2
172
     0
173
     0
174
     0
175
     0
176
     0
177
     0
178
     0
270
     2
271
     4
272
     4
273
     2
274
     2
340
11
275
     0
280
     0
281
     0
282
     0
283
     1
284
     0
285
     0
286
     0
287
     3
288
     0
  0
ENDTAB
  0
TABLE
  2
BLOCK_RECORD
  5
1
330
0
100
AcDbSymbolTable
 70
    56
  0
BLOCK_RECORD
  5
1F
330
1
100
AcDbSymbolTableRecord
100
AcDbBlockTableRecord
  2
*MODEL_SPACE
  0
BLOCK_RECORD
  5
1B
330
1
100
AcDbSymbolTableRecord
100
AcDbBlockTableRecord
  2
*PAPER_SPACE
  0
BLOCK_RECORD
  5
4F
330
1
100
AcDbSymbolTableRecord
100
AcDbBlockTableRecord
  2
GROUP_1
  0
BLOCK_RECORD
  5
52
330
1
100
AcDbSymbolTableRecord
100
AcDbBlockTableRecord
  2
GROUP_2
  0
BLOCK_RECORD
  5
55
330
1
100
AcDbSymbolTableRecord
100
AcDbBlockTableRecord
  2
GROUP_3
  0
BLOCK_RECORD
  5
58
330
1
100
AcDbSymbolTableRecord
100
AcDbBlockTableRecord
  2
GROUP_4
  0
BLOCK_RECORD
  5
5B
330
1
100
AcDbSymbolTableRecord
100
AcDbBlockTableRecord
  2
GROUP_5
  0
BLOCK_RECORD
  5
5E
330
1
100
AcDbSymbolTableRecord
100
AcDbBlockTableRecord
  2
GROUP_6
  0
BLOCK_RECORD
  5
61
330
1
100
AcDbSymbolTableRecord
100
AcDbBlockTableRecord
  2
GROUP_7
  0
BLOCK_RECORD
  5
64
330
1
100
AcDbSymbolTableRecord
100
AcDbBlockTableRecord
  2
GROUP_8
  0
BLOCK_RECORD
  5
67
330
1
100
AcDbSymbolTableRecord
100
AcDbBlockTableRecord
  2
GROUP_9
  0
BLOCK_RECORD
  5
6A
330
1
100
AcDbSymbolTableRecord
100
AcDbBlockTableRecord
  2
GROUP_10
  0
BLOCK_RECORD
  5
6D
330
1
100
AcDbSymbolTableRecord
100
AcDbBlockTableRecord
  2
GROUP_11
  0
BLOCK_RECORD
  5
70
330
1
100
AcDbSymbolTableRecord
100
AcDbBlockTableRecord
  2
GROUP_12
  0
BLOCK_RECORD
  5
73
330
1
100
AcDbSymbolTableRecord
100
AcDbBlockTableRecord
  2
GROUP_13
  0
BLOCK_RECORD
  5
76
330
1
100
AcDbSymbolTableRecord
100
AcDbBlockTableRecord
  2
GROUP_14
  0
BLOCK_RECORD
  5
79
330
1
100
AcDbSymbolTableRecord
100
AcDbBlockTableRecord
  2
GROUP_15
  0
BLOCK_RECORD
  5
7C
330
1
100
AcDbSymbolTableRecord
100
AcDbBlockTableRecord
  2
GROUP_16
  0
BLOCK_RECORD
  5
7F
330
1
100
AcDbSymbolTableRecord
100
AcDbBlockTableRecord
  2
GROUP_17
  0
BLOCK_RECORD
  5
82
330
1
100
AcDbSymbolTableRecord
100
AcDbBlockTableRecord
  2
GROUP_18
  0
BLOCK_RECORD
  5
85
330
1
100
AcDbSymbolTableRecord
100
AcDbBlockTableRecord
  2
GROUP_19
  0
BLOCK_RECORD
  5
88
330
1
100
AcDbSymbolTableRecord
100
AcDbBlockTableRecord
  2
GROUP_20
  0
BLOCK_RECORD
  5
8B
330
1
100
AcDbSymbolTableRecord
100
AcDbBlockTableRecord
  2
GROUP_21
  0
BLOCK_RECORD
  5
8E
330
1
100
AcDbSymbolTableRecord
100
AcDbBlockTableRecord
  2
GROUP_22
  0
BLOCK_RECORD
  5
91
330
1
100
AcDbSymbolTableRecord
100
AcDbBlockTableRecord
  2
GROUP_23
  0
BLOCK_RECORD
  5
94
330
1
100
AcDbSymbolTableRecord
100
AcDbBlockTableRecord
  2
GROUP_24
  0
BLOCK_RECORD
  5
97
330
1
100
AcDbSymbolTableRecord
100
AcDbBlockTableRecord
  2
GROUP_25
  0
BLOCK_RECORD
  5
9A
330
1
100
AcDbSymbolTableRecord
100
AcDbBlockTableRecord
  2
GROUP_26
  0
BLOCK_RECORD
  5
9D
330
1
100
AcDbSymbolTableRecord
100
AcDbBlockTableRecord
  2
GROUP_27
  0
BLOCK_RECORD
  5
A0
330
1
100
AcDbSymbolTableRecord
100
AcDbBlockTableRecord
  2
GROUP_28
  0
BLOCK_RECORD
  5
A3
330
1
100
AcDbSymbolTableRecord
100
AcDbBlockTableRecord
  2
GROUP_29
  0
BLOCK_RECORD
  5
A6
330
1
100
AcDbSymbolTableRecord
100
AcDbBlockTableRecord
  2
GROUP_30
  0
BLOCK_RECORD
  5
A9
330
1
100
AcDbSymbolTableRecord
100
AcDbBlockTableRecord
  2
GROUP_31
  0
BLOCK_RECORD
  5
AC
330
1
100
AcDbSymbolTableRecord
100
AcDbBlockTableRecord
  2
GROUP_32
  0
BLOCK_RECORD
  5
AF
330
1
100
AcDbSymbolTableRecord
100
AcDbBlockTableRecord
  2
GROUP_33
  0
BLOCK_RECORD
  5
B2
330
1
100
AcDbSymbolTableRecord
100
AcDbBlockTableRecord
  2
GROUP_34
  0
BLOCK_RECORD
  5
B5
330
1
100
AcDbSymbolTableRecord
100
AcDbBlockTableRecord
  2
GROUP_35
  0
BLOCK_RECORD
  5
B8
330
1
100
AcDbSymbolTableRecord
100
AcDbBlockTableRecord
  2
GROUP_36
  0
BLOCK_RECORD
  5
BB
330
1
100
AcDbSymbolTableRecord
100
AcDbBlockTableRecord
  2
DA_IMAGEDIMGROUP_1
  0
BLOCK_RECORD
  5
BE
330
1
100
AcDbSymbolTableRecord
100
AcDbBlockTableRecord
  2
DA_IMAGEDIMGROUP_2
  0
BLOCK_RECORD
  5
C1
330
1
100
AcDbSymbolTableRecord
100
AcDbBlockTableRecord
  2
DA_IMAGEDIMGROUP_3
  0
BLOCK_RECORD
  5
C4
330
1
100
AcDbSymbolTableRecord
100
AcDbBlockTableRecord
  2
DA_IMAGEDIMGROUP_4
  0
BLOCK_RECORD
  5
C7
330
1
100
AcDbSymbolTableRecord
100
AcDbBlockTableRecord
  2
DA_IMAGEDIMGROUP_5
  0
BLOCK_RECORD
  5
CA
330
1
100
AcDbSymbolTableRecord
100
AcDbBlockTableRecord
  2
DA_IMAGEDIMGROUP_6
  0
BLOCK_RECORD
  5
CD
330
1
100
AcDbSymbolTableRecord
100
AcDbBlockTableRecord
  2
DA_IMAGEDIMGROUP_7
  0
BLOCK_RECORD
  5
D0
330
1
100
AcDbSymbolTableRecord
100
AcDbBlockTableRecord
  2
DA_IMAGEDIMGROUP_8
  0
BLOCK_RECORD
  5
D3
330
1
100
AcDbSymbolTableRecord
100
AcDbBlockTableRecord
  2
GROUP_37
  0
BLOCK_RECORD
  5
D6
330
1
100
AcDbSymbolTableRecord
100
AcDbBlockTableRecord
  2
GROUP_38
  0
BLOCK_RECORD
  5
D9
330
1
100
AcDbSymbolTableRecord
100
AcDbBlockTableRecord
  2
GROUP_39
  0
BLOCK_RECORD
  5
DC
330
1
100
AcDbSymbolTableRecord
100
AcDbBlockTableRecord
  2
DA_IMAGEDIMGROUP_9
  0
BLOCK_RECORD
  5
DF
330
1
100
AcDbSymbolTableRecord
100
AcDbBlockTableRecord
  2
GROUP_40
  0
BLOCK_RECORD
  5
E2
330
1
100
AcDbSymbolTableRecord
100
AcDbBlockTableRecord
  2
DA_IMAGEDIMGROUP_10
  0
BLOCK_RECORD
  5
E5
330
1
100
AcDbSymbolTableRecord
100
AcDbBlockTableRecord
  2
DA_IMAGEDIMGROUP_11
  0
BLOCK_RECORD
  5
E8
330
1
100
AcDbSymbolTableRecord
100
AcDbBlockTableRecord
  2
DA_IMAGEDIMGROUP_12
  0
BLOCK_RECORD
  5
EB
330
1
100
AcDbSymbolTableRecord
100
AcDbBlockTableRecord
  2
GROUP_41
  0
BLOCK_RECORD
  5
EE
330
1
100
AcDbSymbolTableRecord
100
AcDbBlockTableRecord
  2
GROUP_42
  0
BLOCK_RECORD
  5
2B5
330
1
100
AcDbSymbolTableRecord
100
AcDbBlockTableRecord
  2
_OPEN30
  0
ENDTAB
  0
ENDSEC
  0
SECTION
  2
BLOCKS
  0
BLOCK
  5
20
330
1F
100
AcDbEntity
  8
0
100
AcDbBlockBegin
  2
*MODEL_SPACE
 70
     0
 71
     0
 10
0.0
 20
0.0
 30
0.0
  3
*MODEL_SPACE
  1

  0
ENDBLK
  5
21
330
1F
100
AcDbEntity
  8
0
100
AcDbBlockEnd
  0
BLOCK
  5
1C
330
1B
100
AcDbEntity
 67
     1
  8
0
100
AcDbBlockBegin
  2
*PAPER_SPACE
 70
     0
 71
     0
 10
0.0
 20
0.0
 30
0.0
  3
*PAPER_SPACE
  1

  0
ENDBLK
  5
1D
330
1B
100
AcDbEntity
 67
     1
  8
0
100
AcDbBlockEnd
  0
BLOCK
  5
50
330
4F
100
AcDbEntity
  8
0
100
AcDbBlockBegin
  2
GROUP_1
 70
     0
 71
     0
 10
0.0
 20
0.0
 30
0.0
  3
GROUP_1
  1

  0
LINE
  5
F1
330
4F
100
AcDbEntity
  8
0
 62
     7
100
AcDbLine
 10
-2077.5
 20
-1455.0
 30
0.0
 11
2077.5
 21
-1455.0
 31
0.0
  0
LINE
  5
F2
330
4F
100
AcDbEntity
  8
0
 62
     7
100
AcDbLine
 10
2077.500000000001
 20
1455.000000000001
 30
0.0
 11
-2077.5
 21
1455.000000000001
 31
0.0
  0
LINE
  5
F3
330
4F
100
AcDbEntity
  8
0
 62
     7
100
AcDbLine
 10
-2077.5
 20
1455.000000000001
 30
0.0
 11
-2077.5
 21
-1455.0
 31
0.0
  0
LINE
  5
F4
330
4F
100
AcDbEntity
  8
0
 62
     7
100
AcDbLine
 10
2077.5
 20
-1455.0
 30
0.0
 11
2077.500000000001
 21
1455.000000000001
 31
0.0
  0
ENDBLK
  5
51
330
4F
100
AcDbEntity
  8
0
100
AcDbBlockEnd
  0
BLOCK
  5
53
330
52
100
AcDbEntity
  8
0
100
AcDbBlockBegin
  2
GROUP_2
 70
     0
 71
     0
 10
0.0
 20
0.0
 30
0.0
  3
GROUP_2
  1

  0
LINE
  5
F5
330
52
100
AcDbEntity
  8
0
  6
CENTER
 62
     9
100
AcDbLine
 10
-1728.3882149238
 20
947.014945652174
 30
0.0
 11
333.1961171379139
 21
947.014945652174
 31
0.0
  0
LINE
  5
F6
330
52
100
AcDbEntity
  8
0
  6
CENTER
 62
     9
100
AcDbLine
 10
-1547.568078752676
 20
750.014945652174
 30
0.0
 11
-1547.568078752676
 21
1144.014945652174
 31
0.0
  0
LINE
  5
F7
330
52
100
AcDbEntity
  8
0
  6
CENTER
 62
     9
100
AcDbLine
 10
-877.5729091868477
 20
750.014945652174
 30
0.0
 11
-877.5729091868477
 21
1144.014945652174
 31
0.0
  0
ENDBLK
  5
54
330
52
100
AcDbEntity
  8
0
100
AcDbBlockEnd
  0
BLOCK
  5
56
330
55
100
AcDbEntity
  8
0
100
AcDbBlockBegin
  2
GROUP_3
 70
     0
 71
     0
 10
0.0
 20
0.0
 30
0.0
  3
GROUP_3
  1

  0
LINE
  5
FE
330
55
100
AcDbEntity
  8
0
 62
     7
100
AcDbLine
 10
-100.8083099843138
 20
1204.014945652174
 30
0.0
 11
182.4557033387328
 21
1204.014945652174
 31
0.0
  0
LINE
  5
FF
330
55
100
AcDbEntity
  8
0
 62
     7
100
AcDbLine
 10
-100.8083099843138
 20
1204.014945652174
 30
0.0
 11
-100.8083099843138
 21
1094.014945652174
 31
0.0
  0
LINE
  5
100
330
55
100
AcDbEntity
  8
0
 62
     7
100
AcDbLine
 10
59.88859225291367
 20
1204.014945652174
 30
0.0
 11
59.88859225291367
 21
1094.014945652174
 31
0.0
  0
LINE
  5
101
330
55
100
AcDbEntity
  8
0
 62
     7
100
AcDbLine
 10
182.4557033387328
 20
1204.014945652174
 30
0.0
 11
182.4557033387328
 21
1094.014945652174
 31
0.0
  0
ENDBLK
  5
57
330
55
100
AcDbEntity
  8
0
100
AcDbBlockEnd
  0
BLOCK
  5
59
330
58
100
AcDbEntity
  8
0
100
AcDbBlockBegin
  2
GROUP_4
 70
     0
 71
     0
 10
0.0
 20
0.0
 30
0.0
  3
GROUP_4
  1

  0
LINE
  5
102
330
58
100
AcDbEntity
  8
0
 62
     7
100
AcDbLine
 10
-100.8081798823166
 20
755.014945652174
 30
0.0
 11
-100.8081798823166
 21
800.014945652174
 31
0.0
  0
LINE
  5
103
330
58
100
AcDbEntity
  8
0
 62
     7
100
AcDbLine
 10
-100.8081798823166
 20
755.014945652174
 30
0.0
 11
144.1536110923341
 21
755.014945652174
 31
0.0
  0
LINE
  5
104
330
58
100
AcDbEntity
  8
0
 62
     7
100
AcDbLine
 10
59.8887223557349
 20
755.014945652174
 30
0.0
 11
59.8887223557349
 21
800.014945652174
 31
0.0
  0
LINE
  5
105
330
58
100
AcDbEntity
  8
0
 62
     7
100
AcDbLine
 10
144.1536110923341
 20
755.014945652174
 30
0.0
 11
144.1536110923341
 21
800.014945652174
 31
0.0
  0
ENDBLK
  5
5A
330
58
100
AcDbEntity
  8
0
100
AcDbBlockEnd
  0
BLOCK
  5
5C
330
5B
100
AcDbEntity
  8
0
100
AcDbBlockBegin
  2
GROUP_5
 70
     0
 71
     0
 10
0.0
 20
0.0
 30
0.0
  3
GROUP_5
  1

  0
LINE
  5
106
330
5B
100
AcDbEntity
  8
0
 62
    32
100
AcDbLine
 10
-310.0729091868477
 20
800.014945652174
 30
0.0
 11
-310.0729091868477
 21
768.514945652174
 31
0.0
  0
LINE
  5
107
330
5B
100
AcDbEntity
  8
0
 62
    32
100
AcDbLine
 10
-310.0729091868477
 20
768.514945652174
 30
0.0
 11
-245.0729091868477
 21
768.514945652174
 31
0.0
  0
LINE
  5
108
330
5B
100
AcDbEntity
  8
0
 62
    32
100
AcDbLine
 10
-245.0729091868477
 20
768.514945652174
 30
0.0
 11
-245.0729091868477
 21
800.014945652174
 31
0.0
  0
LINE
  5
109
330
5B
100
AcDbEntity
  8
0
  6
CENTER
 62
     9
100
AcDbLine
 10
-277.5729091868477
 20
800.014945652174
 30
0.0
 11
-277.5729091868477
 21
750.1759510869583
 31
0.0
  0
ENDBLK
  5
5D
330
5B
100
AcDbEntity
  8
0
100
AcDbBlockEnd
  0
BLOCK
  5
5F
330
5E
100
AcDbEntity
  8
0
100
AcDbBlockBegin
  2
GROUP_6
 70
     0
 71
     0
 10
0.0
 20
0.0
 30
0.0
  3
GROUP_6
  1

  0
ENDBLK
  5
60
330
5E
100
AcDbEntity
  8
0
100
AcDbBlockEnd
  0
BLOCK
  5
62
330
61
100
AcDbEntity
  8
0
100
AcDbBlockBegin
  2
GROUP_7
 70
     0
 71
     0
 10
0.0
 20
0.0
 30
0.0
  3
GROUP_7
  1

  0
LINE
  5
10C
330
61
100
AcDbEntity
  8
0
 62
    32
100
AcDbLine
 10
-255.7729091868477
 20
780.014945652174
 30
0.0
 11
-299.3729091868477
 21
780.014945652174
 31
0.0
  0
LINE
  5
10D
330
61
100
AcDbEntity
  8
0
 62
    32
100
AcDbLine
 10
-302.5729091868478
 20
783.2149456521738
 30
0.0
 11
-302.5729091868478
 21
796.8149456521737
 31
0.0
  0
LINE
  5
10E
330
61
100
AcDbEntity
  8
0
 62
    32
100
AcDbLine
 10
-299.3729091868477
 20
800.014945652174
 30
0.0
 11
-255.7729091868477
 21
800.014945652174
 31
0.0
  0
LINE
  5
10F
330
61
100
AcDbEntity
  8
0
 62
    32
100
AcDbLine
 10
-252.5729091868477
 20
796.8149456521737
 30
0.0
 11
-252.5729091868477
 21
783.2149456521738
 31
0.0
  0
ARC
  5
110
330
61
100
AcDbEntity
  8
0
 62
    32
100
AcDbCircle
 10
-255.7729091868477
 20
783.2149456521738
 30
0.0
 40
3.2
100
AcDbArc
 50
270.0
 51
360.0
  0
ARC
  5
111
330
61
100
AcDbEntity
  8
0
 62
    32
100
AcDbCircle
 10
-299.3729091868477
 20
783.2149456521738
 30
0.0
 40
3.2
100
AcDbArc
 50
180.0
 51
270.0
  0
ARC
  5
112
330
61
100
AcDbEntity
  8
0
 62
    32
100
AcDbCircle
 10
-299.3729091868477
 20
796.8149456521737
 30
0.0
 40
3.2
100
AcDbArc
 50
90.0
 51
180.0
  0
ARC
  5
113
330
61
100
AcDbEntity
  8
0
 62
    32
100
AcDbCircle
 10
-255.7729091868477
 20
796.8149456521737
 30
0.0
 40
3.2
100
AcDbArc
 50
360.0
 51
90.0
  0
ENDBLK
  5
63
330
61
100
AcDbEntity
  8
0
100
AcDbBlockEnd
  0
BLOCK
  5
65
330
64
100
AcDbEntity
  8
0
100
AcDbBlockBegin
  2
GROUP_8
 70
     0
 71
     0
 10
0.0
 20
0.0
 30
0.0
  3
GROUP_8
  1

  0
LINE
  5
114
330
64
100
AcDbEntity
  8
0
 62
    32
100
AcDbLine
 10
-310.0729091868477
 20
1094.014945652174
 30
0.0
 11
-310.0729091868477
 21
1125.514945652174
 31
0.0
  0
LINE
  5
115
330
64
100
AcDbEntity
  8
0
 62
    32
100
AcDbLine
 10
-310.0729091868477
 20
1125.514945652174
 30
0.0
 11
-245.0729091868477
 21
1125.514945652174
 31
0.0
  0
LINE
  5
116
330
64
100
AcDbEntity
  8
0
 62
    32
100
AcDbLine
 10
-245.0729091868477
 20
1125.514945652174
 30
0.0
 11
-245.0729091868477
 21
1094.014945652174
 31
0.0
  0
LINE
  5
117
330
64
100
AcDbEntity
  8
0
  6
CENTER
 62
     9
100
AcDbLine
 10
-277.5729091868477
 20
1094.014945652174
 30
0.0
 11
-277.5729091868477
 21
1143.85394021739
 31
0.0
  0
ENDBLK
  5
66
330
64
100
AcDbEntity
  8
0
100
AcDbBlockEnd
  0
BLOCK
  5
68
330
67
100
AcDbEntity
  8
0
100
AcDbBlockBegin
  2
GROUP_9
 70
     0
 71
     0
 10
0.0
 20
0.0
 30
0.0
  3
GROUP_9
  1

  0
ENDBLK
  5
69
330
67
100
AcDbEntity
  8
0
100
AcDbBlockEnd
  0
BLOCK
  5
6B
330
6A
100
AcDbEntity
  8
0
100
AcDbBlockBegin
  2
GROUP_10
 70
     0
 71
     0
 10
0.0
 20
0.0
 30
0.0
  3
GROUP_10
  1

  0
LINE
  5
11A
330
6A
100
AcDbEntity
  8
0
 62
    32
100
AcDbLine
 10
-255.7729091868477
 20
1114.014945652174
 30
0.0
 11
-299.3729091868477
 21
1114.014945652174
 31
0.0
  0
LINE
  5
11B
330
6A
100
AcDbEntity
  8
0
 62
    32
100
AcDbLine
 10
-302.5729091868478
 20
1110.814945652174
 30
0.0
 11
-302.5729091868478
 21
1097.214945652174
 31
0.0
  0
LINE
  5
11C
330
6A
100
AcDbEntity
  8
0
 62
    32
100
AcDbLine
 10
-299.3729091868477
 20
1094.014945652174
 30
0.0
 11
-255.7729091868477
 21
1094.014945652174
 31
0.0
  0
LINE
  5
11D
330
6A
100
AcDbEntity
  8
0
 62
    32
100
AcDbLine
 10
-252.5729091868477
 20
1097.214945652174
 30
0.0
 11
-252.5729091868477
 21
1110.814945652174
 31
0.0
  0
ARC
  5
11E
330
6A
100
AcDbEntity
  8
0
 62
    32
100
AcDbCircle
 10
-255.7729091868477
 20
1110.814945652174
 30
0.0
 40
3.2
100
AcDbArc
 50
0.000000000000014
 51
90.00000000000001
  0
ARC
  5
11F
330
6A
100
AcDbEntity
  8
0
 62
    32
100
AcDbCircle
 10
-299.3729091868477
 20
1110.814945652174
 30
0.0
 40
3.2
100
AcDbArc
 50
90.00000000000001
 51
180.0
  0
ARC
  5
120
330
6A
100
AcDbEntity
  8
0
 62
    32
100
AcDbCircle
 10
-299.3729091868477
 20
1097.214945652174
 30
0.0
 40
3.2
100
AcDbArc
 50
180.0
 51
270.0
  0
ARC
  5
121
330
6A
100
AcDbEntity
  8
0
 62
    32
100
AcDbCircle
 10
-255.7729091868477
 20
1097.214945652174
 30
0.0
 40
3.2
100
AcDbArc
 50
270.0
 51
360.0
  0
ENDBLK
  5
6C
330
6A
100
AcDbEntity
  8
0
100
AcDbBlockEnd
  0
BLOCK
  5
6E
330
6D
100
AcDbEntity
  8
0
100
AcDbBlockBegin
  2
GROUP_11
 70
     0
 71
     0
 10
0.0
 20
0.0
 30
0.0
  3
GROUP_11
  1

  0
LINE
  5
122
330
6D
100
AcDbEntity
  8
0
 62
     7
100
AcDbLine
 10
-67.50881443937874
 20
731.3149622818687
 30
0.0
 11
-109.8623728446621
 21
731.3149622818696
 31
0.0
  0
ARC
  5
123
330
6D
100
AcDbEntity
  8
0
 62
     7
100
AcDbCircle
 10
-109.8623728446621
 20
729.3149622818696
 30
0.0
 40
2.0
100
AcDbArc
 50
89.99999999999837
 51
149.9999999999995
  0
LINE
  5
124
330
6D
100
AcDbEntity
  8
0
 62
     7
100
AcDbLine
 10
-143.8623413734108
 20
745.8149566939342
 30
0.0
 11
-241.8623651556632
 21
745.8149566939342
 31
0.0
  0
LINE
  5
125
330
6D
100
AcDbEntity
  8
0
 62
     7
100
AcDbLine
 10
-241.8623651556632
 20
626.8149678698047
 30
0.0
 11
-143.8623413734108
 21
626.8149678698047
 31
0.0
  0
LINE
  5
126
330
6D
100
AcDbEntity
  8
0
 62
     7
100
AcDbLine
 10
-143.8623413734108
 20
626.8149678698047
 30
0.0
 11
-143.8623413734108
 21
745.8149566939342
 31
0.0
  0
LINE
  5
127
330
6D
100
AcDbEntity
  8
0
 62
     7
100
AcDbLine
 10
-241.8623651556632
 20
745.8149566939342
 30
0.0
 11
-241.8623651556632
 21
626.8149678698047
 31
0.0
  0
LINE
  5
128
330
6D
100
AcDbEntity
  8
0
 62
     7
100
AcDbLine
 10
-241.8623651556632
 20
739.0649683391912
 30
0.0
 11
-248.8630821101115
 21
739.0649683391912
 31
0.0
  0
LINE
  5
129
330
6D
100
AcDbEntity
  8
0
 62
     7
100
AcDbLine
 10
-248.8630821101115
 20
739.0649683391912
 30
0.0
 11
-248.8630821101115
 21
633.5649791127306
 31
0.0
  0
LINE
  5
12A
330
6D
100
AcDbEntity
  8
0
 62
     7
100
AcDbLine
 10
-248.8630821101115
 20
633.5649791127306
 30
0.0
 11
-241.8623651556632
 21
633.5649791127306
 31
0.0
  0
LINE
  5
12B
330
6D
100
AcDbEntity
  8
0
 62
     7
100
AcDbLine
 10
-248.8630821101115
 20
641.3150551757057
 30
0.0
 11
-252.8630896202965
 21
641.3150551757057
 31
0.0
  0
LINE
  5
12C
330
6D
100
AcDbEntity
  8
0
 62
     7
100
AcDbLine
 10
-252.8630896202965
 20
641.3150551757057
 30
0.0
 11
-252.8630896202965
 21
731.3149609407651
 31
0.0
  0
LINE
  5
12D
330
6D
100
AcDbEntity
  8
0
 62
     7
100
AcDbLine
 10
-252.8630896202965
 20
731.3149609407651
 30
0.0
 11
-248.8630821101115
 21
731.3149609407651
 31
0.0
  0
LINE
  5
12E
330
6D
100
AcDbEntity
  8
0
 62
     7
100
AcDbLine
 10
-139.6298445049522
 20
634.314948513197
 30
0.0
 11
-143.8623413734108
 21
634.314948513197
 31
0.0
  0
LINE
  5
12F
330
6D
100
AcDbEntity
  8
0
 62
     7
100
AcDbLine
 10
-138.8623720399996
 20
634.4680630225561
 30
0.0
 11
-138.8623720399996
 21
738.161861541183
 31
0.0
  0
LINE
  5
130
330
6D
100
AcDbEntity
  8
0
 62
     7
100
AcDbLine
 10
-139.6298445049522
 20
738.3149760505421
 30
0.0
 11
-143.8623413734108
 21
738.3149760505421
 31
0.0
  0
LINE
  5
131
330
6D
100
AcDbEntity
  8
0
 62
     7
100
AcDbLine
 10
-113.3264744598
 20
643.3149622818695
 30
0.0
 11
-128.0948922436758
 21
643.3149622818695
 31
0.0
  0
LINE
  5
132
330
6D
100
AcDbEntity
  8
0
 62
     7
100
AcDbLine
 10
-113.3264744598
 20
729.3149622818696
 30
0.0
 11
-128.0948922436758
 21
729.3149622818696
 31
0.0
  0
LINE
  5
133
330
6D
100
AcDbEntity
  8
0
 62
     7
100
AcDbLine
 10
-65.85904130370523
 20
641.3149622818686
 30
0.0
 11
-109.8623728446623
 21
641.3149622818695
 31
0.0
  0
LINE
  5
134
330
6D
100
AcDbEntity
  8
0
 62
     7
100
AcDbLine
 10
-128.8623647086286
 20
729.3149622818696
 30
0.0
 11
-128.8623647086286
 21
643.3149622818695
 31
0.0
  0
LINE
  5
135
330
6D
100
AcDbEntity
  8
0
 62
     7
100
AcDbLine
 10
-129.432822295842
 20
642.8015500443345
 30
0.0
 11
-138.2919144527859
 21
634.828360750732
 31
0.0
  0
LINE
  5
136
330
6D
100
AcDbEntity
  8
0
 62
     7
100
AcDbLine
 10
-129.432822295842
 20
729.8283745194046
 30
0.0
 11
-138.2919144527859
 21
737.8015638130069
 31
0.0
  0
ARC
  5
137
330
6D
100
AcDbEntity
  8
0
 62
     7
100
AcDbCircle
 10
-109.8623728446621
 20
643.3149622818695
 30
0.0
 40
2.0
100
AcDbArc
 50
210.0000000000005
 51
269.9999999999984
  0
ARC
  5
138
330
6D
100
AcDbEntity
  8
0
 62
     7
100
AcDbCircle
 10
-113.3264744598
 20
641.3149622818695
 30
0.0
 40
2.0
100
AcDbArc
 50
29.99999999999971
 51
90.0
  0
ARC
  5
139
330
6D
100
AcDbEntity
  8
0
 62
     7
100
AcDbCircle
 10
-113.3264744598
 20
731.3149622818696
 30
0.0
 40
2.0
100
AcDbArc
 50
270.0
 51
330.0000000000003
  0
ARC
  5
13A
330
6D
100
AcDbEntity
  8
0
 62
     7
100
AcDbCircle
 10
-128.0948922436758
 20
641.3149622818695
 30
0.0
 40
2.0
100
AcDbArc
 50
90.0
 51
131.9872351939063
  0
ARC
  5
13B
330
6D
100
AcDbEntity
  8
0
 62
     7
100
AcDbCircle
 10
-128.0948922436758
 20
731.3149622818696
 30
0.0
 40
2.0
100
AcDbArc
 50
228.0127648060937
 51
270.0
  0
ARC
  5
13C
330
6D
100
AcDbEntity
  8
0
 62
     7
100
AcDbCircle
 10
-139.6298445049522
 20
736.3149760505421
 30
0.0
 40
2.0
100
AcDbArc
 50
48.01276480609374
 51
90.0
  0
ARC
  5
13D
330
6D
100
AcDbEntity
  8
0
 62
     7
100
AcDbCircle
 10
-139.6298445049522
 20
636.314948513197
 30
0.0
 40
2.0
100
AcDbArc
 50
270.0
 51
311.9872351939063
  0
LINE
  5
13E
330
6D
100
AcDbEntity
  8
0
 62
     2
100
AcDbLine
 10
-255.3622652582624
 20
651.8149622818696
 30
0.0
 11
-255.3622652582624
 21
720.8149622818695
 31
0.0
  0
LINE
  5
13F
330
6D
100
AcDbEntity
  8
0
 62
     2
100
AcDbLine
 10
-255.5275640715036
 20
728.8149622818694
 30
0.0
 11
-252.8630896202965
 21
728.8149622818694
 31
0.0
  0
LINE
  5
140
330
6D
100
AcDbEntity
  8
0
 62
     2
100
AcDbLine
 10
-260.5275640715036
 20
723.8149622818694
 30
0.0
 11
-260.5275640715036
 21
648.8149622818696
 31
0.0
  0
LINE
  5
141
330
6D
100
AcDbEntity
  8
0
 62
     2
100
AcDbLine
 10
-255.5275640715036
 20
643.8149622818696
 30
0.0
 11
-252.8630896202965
 21
643.8149622818696
 31
0.0
  0
ARC
  5
142
330
6D
100
AcDbEntity
  8
0
 62
     2
100
AcDbCircle
 10
-250.3622652582624
 20
651.8149622818696
 30
0.0
 40
5.0
100
AcDbArc
 50
180.0
 51
239.9890915297666
  0
ARC
  5
143
330
6D
100
AcDbEntity
  8
0
 62
     2
100
AcDbCircle
 10
-250.3622652582624
 20
720.8149622818695
 30
0.0
 40
5.0
100
AcDbArc
 50
120.0109084702334
 51
180.0
  0
ARC
  5
144
330
6D
100
AcDbEntity
  8
0
 62
     2
100
AcDbCircle
 10
-255.5275640715036
 20
723.8149622818694
 30
0.0
 40
5.0
100
AcDbArc
 50
90.0
 51
180.0
  0
ARC
  5
145
330
6D
100
AcDbEntity
  8
0
 62
     2
100
AcDbCircle
 10
-255.5275640715036
 20
648.8149622818696
 30
0.0
 40
5.0
100
AcDbArc
 50
180.0
 51
270.0
  0
LINE
  5
146
330
6D
100
AcDbEntity
  8
0
 62
     7
100
AcDbLine
 10
84.1376783664175
 20
717.8149207889957
 30
0.0
 11
82.10827035897023
 21
640.314954470941
 31
0.0
  0
LINE
  5
147
330
6D
100
AcDbEntity
  8
0
 62
     7
100
AcDbLine
 10
84.13772049620866
 20
717.8149613430962
 30
0.0
 11
-67.86229023262695
 21
717.8149613430962
 31
0.0
  0
LINE
  5
148
330
6D
100
AcDbEntity
  8
0
 62
     7
100
AcDbLine
 10
-67.86226283974111
 20
717.814907586439
 30
0.0
 11
-65.83285483229383
 21
640.3149412683843
 31
0.0
  0
LINE
  5
149
330
6D
100
AcDbEntity
  8
0
 62
     7
100
AcDbLine
 10
82.10827109380057
 20
640.3149789115647
 30
0.0
 11
-65.83290949476736
 21
640.3149789115647
 31
0.0
  0
LINE
  5
14A
330
6D
100
AcDbEntity
  8
0
 62
     7
100
AcDbLine
 10
65.63766001239719
 20
635.3149180254219
 30
0.0
 11
-17.36230699643284
 21
635.3149180254219
 31
0.0
  0
LINE
  5
14B
330
6D
100
AcDbEntity
  8
0
 62
     7
100
AcDbLine
 10
66.63769050017231
 20
640.3149789115647
 30
0.0
 11
66.63769050017231
 21
636.3149485131968
 31
0.0
  0
LINE
  5
14C
330
6D
100
AcDbEntity
  8
0
 62
     7
100
AcDbLine
 10
-18.36233748420773
 20
640.3149789115647
 30
0.0
 11
-18.36233748420773
 21
636.3149485131968
 31
0.0
  0
LINE
  5
14D
330
6D
100
AcDbEntity
  8
0
 62
     7
100
AcDbLine
 10
-18.36227505872193
 20
636.3148747243256
 30
0.0
 11
-17.36233870523392
 21
635.3149384551256
 31
0.0
  0
LINE
  5
14E
330
6D
100
AcDbEntity
  8
0
 62
     7
100
AcDbLine
 10
65.63767552383365
 20
635.3149338611198
 30
0.0
 11
66.63767653058812
 21
636.3149349521681
 31
0.0
  0
LINE
  5
14F
330
6D
100
AcDbEntity
  8
0
 62
     7
100
AcDbLine
 10
83.75802178240269
 20
732.3149248857617
 30
0.0
 11
84.13771772923747
 21
717.8149214449485
 31
0.0
  0
LINE
  5
150
330
6D
100
AcDbEntity
  8
0
 62
     7
100
AcDbLine
 10
66.63769376864775
 20
736.3149388373947
 30
0.0
 11
65.63769271974638
 21
737.3149398862961
 31
0.0
  0
LINE
  5
151
330
6D
100
AcDbEntity
  8
0
 62
     7
100
AcDbLine
 10
65.63775156512907
 20
737.3149607619512
 30
0.0
 11
24.13772228434823
 21
737.3149607619512
 31
0.0
  0
LINE
  5
152
330
6D
100
AcDbEntity
  8
0
 62
     7
100
AcDbLine
 10
83.75800554170496
 20
732.314945652174
 30
0.0
 11
-67.48266683085467
 21
732.314945652174
 31
0.0
  0
LINE
  5
153
330
6D
100
AcDbEntity
  8
0
 62
     7
100
AcDbLine
 10
24.13772228434823
 20
737.3149607619512
 30
0.0
 11
-17.36230699643284
 21
737.3149607619512
 31
0.0
  0
LINE
  5
154
330
6D
100
AcDbEntity
  8
0
 62
     7
100
AcDbLine
 10
66.63769050017231
 20
732.314945652174
 30
0.0
 11
66.63769050017231
 21
736.3149760505421
 31
0.0
  0
LINE
  5
155
330
6D
100
AcDbEntity
  8
0
 62
     7
100
AcDbLine
 10
-18.36224593147608
 20
732.314945652174
 30
0.0
 11
-18.36224593147608
 21
736.3149760505421
 31
0.0
  0
LINE
  5
156
330
6D
100
AcDbEntity
  8
0
 62
     7
100
AcDbLine
 10
-18.36230637383301
 20
736.3150278515363
 30
0.0
 11
-17.36230532493141
 21
737.3150289004375
 31
0.0
  0
LINE
  5
157
330
6D
100
AcDbEntity
  8
0
 62
     7
100
AcDbLine
 10
-67.48262793778031
 20
732.3149844481402
 30
0.0
 11
-67.86232388461531
 21
717.8149810073273
 31
0.0
  0
LINE
  5
158
330
6D
100
AcDbEntity
  8
0
 62
     7
100
AcDbLine
 10
1.637722954900255
 20
633.3149486026038
 30
0.0
 11
1.637722954900255
 21
635.3149638017877
 31
0.0
  0
LINE
  5
159
330
6D
100
AcDbEntity
  8
0
 62
     7
100
AcDbLine
 10
46.63772161379575
 20
633.3149486026038
 30
0.0
 11
46.63772161379575
 21
635.3149638017877
 31
0.0
  0
LINE
  5
15A
330
6D
100
AcDbEntity
  8
0
 62
     7
100
AcDbLine
 10
45.48301278590407
 20
631.3149791797856
 30
0.0
 11
2.792431782791937
 21
631.3149791797856
 31
0.0
  0
LINE
  5
15B
330
6D
100
AcDbEntity
  8
0
 62
     7
100
AcDbLine
 10
45.48301278590407
 20
741.3149453839533
 30
0.0
 11
2.792431782791937
 21
741.3149453839533
 31
0.0
  0
LINE
  5
15C
330
6D
100
AcDbEntity
  8
0
 62
     7
100
AcDbLine
 10
1.637722954900255
 20
737.3149607619512
 30
0.0
 11
1.637722954900255
 21
739.3149759611349
 31
0.0
  0
LINE
  5
15D
330
6D
100
AcDbEntity
  8
0
 62
     7
100
AcDbLine
 10
46.63772161379575
 20
737.3149607619512
 30
0.0
 11
46.63772161379575
 21
739.3149759611349
 31
0.0
  0
LINE
  5
15E
330
6D
100
AcDbEntity
  8
0
 62
     7
100
AcDbLine
 10
45.48298361670436
 20
631.3149732515376
 30
0.0
 11
46.63766957195639
 21
633.3149479569244
 31
0.0
  0
LINE
  5
15F
330
6D
100
AcDbEntity
  8
0
 62
     7
100
AcDbLine
 10
2.792437498531172
 20
631.3149135986139
 30
0.0
 11
1.637728655095771
 21
633.3149279474966
 31
0.0
  0
LINE
  5
160
330
6D
100
AcDbEntity
  8
0
 62
     7
100
AcDbLine
 10
1.637722954900255
 20
635.3149638017877
 30
0.0
 11
46.63772161379575
 21
635.3149638017877
 31
0.0
  0
LINE
  5
161
330
6D
100
AcDbEntity
  8
0
 62
     7
100
AcDbLine
 10
1.637722954900255
 20
737.3149607619512
 30
0.0
 11
46.63772161379575
 21
737.3149607619512
 31
0.0
  0
LINE
  5
162
330
6D
100
AcDbEntity
  8
0
 62
     7
100
AcDbLine
 10
45.48304408056742
 20
741.3148995751799
 30
0.0
 11
46.63770714763655
 21
739.3149645132885
 31
0.0
  0
LINE
  5
163
330
6D
100
AcDbEntity
  8
0
 62
     7
100
AcDbLine
 10
2.792441749706541
 20
741.314948293855
 30
0.0
 11
1.637744350362937
 21
739.31495376672
 31
0.0
  0
LINE
  5
164
330
6D
100
AcDbEntity
  8
0
  6
CENTER
 62
     9
100
AcDbLine
 10
102.5431473619876
 20
686.3149622818694
 30
0.0
 11
-273.6645389734159
 21
686.3149622818694
 31
0.0
  0
LINE
  5
165
330
6D
100
AcDbEntity
  8
0
  6
CENTER
 62
     9
100
AcDbLine
 10
24.13772228434823
 20
1225.115634704971
 30
0.0
 11
24.13772228434823
 21
610.775734801374
 31
0.0
  0
LINE
  5
166
330
6D
100
AcDbEntity
  8
0
  6
CENTER
 62
     9
100
AcDbLine
 10
-54.86232876702866
 20
637.3605722613318
 30
0.0
 11
-54.86232876702866
 21
736.2697490011085
 31
0.0
  0
LINE
  5
167
330
6D
100
AcDbEntity
  8
0
  6
CENTER
 62
     9
100
AcDbLine
 10
71.13769036606186
 20
637.9060434364816
 30
0.0
 11
71.13769036606186
 21
735.5449718010289
 31
0.0
  0
ENDBLK
  5
6F
330
6D
100
AcDbEntity
  8
0
100
AcDbBlockEnd
  0
BLOCK
  5
71
330
70
100
AcDbEntity
  8
0
100
AcDbBlockBegin
  2
GROUP_12
 70
     0
 71
     0
 10
0.0
 20
0.0
 30
0.0
  3
GROUP_12
  1

  0
LINE
  5
168
330
70
100
AcDbEntity
  8
0
 62
     2
100
AcDbLine
 10
-877.5729091868477
 20
850.014945652174
 30
0.0
 11
-909.007602813718
 21
839.8791215490446
 31
0.0
  0
LINE
  5
169
330
70
100
AcDbEntity
  8
0
 62
     2
100
AcDbLine
 10
-877.5729091868477
 20
1044.014945652174
 30
0.0
 11
-909.007602813718
 21
1054.150769755303
 31
0.0
  0
LINE
  5
16A
330
70
100
AcDbEntity
  8
0
 62
     2
100
AcDbLine
 10
-912.9282491868476
 20
1051.295527163921
 30
0.0
 11
-912.9282491868476
 21
842.734364140427
 31
0.0
  0
LINE
  5
16B
330
70
100
AcDbEntity
  8
0
 62
     2
100
AcDbLine
 10
-1628.568078752679
 20
800.014945652174
 30
0.0
 11
272.5000000000002
 21
800.014945652174
 31
0.0
  0
LINE
  5
16C
330
70
100
AcDbEntity
  8
0
 62
     2
100
AcDbLine
 10
272.5000000000002
 20
800.014945652174
 30
0.0
 11
272.5000000000002
 21
1094.014945652174
 31
0.0
  0
LINE
  5
16D
330
70
100
AcDbEntity
  8
0
 62
     2
100
AcDbLine
 10
272.5000000000002
 20
1094.014945652174
 30
0.0
 11
-1628.568078752679
 21
1094.014945652174
 31
0.0
  0
LINE
  5
16E
330
70
100
AcDbEntity
  8
0
 62
     2
100
AcDbLine
 10
-1628.568078752679
 20
1094.014945652174
 30
0.0
 11
-1628.568078752679
 21
800.014945652174
 31
0.0
  0
LINE
  5
16F
330
70
100
AcDbEntity
  8
0
 62
     2
100
AcDbLine
 10
264.0838670112519
 20
800.014945652174
 30
0.0
 11
264.0838670112519
 21
1094.014945652174
 31
0.0
  0
LINE
  5
170
330
70
100
AcDbEntity
  8
0
 62
     2
100
AcDbLine
 10
172.500000000003
 20
1094.014945652174
 30
0.0
 11
172.500000000003
 21
800.014945652174
 31
0.0
  0
LINE
  5
171
330
70
100
AcDbEntity
  8
0
 62
     2
100
AcDbLine
 10
18.24280940380982
 20
800.014945652174
 30
0.0
 11
18.24280940380982
 21
1094.014945652174
 31
0.0
  0
LINE
  5
172
330
70
100
AcDbEntity
  8
0
 62
     2
100
AcDbLine
 10
-14.85572879607116
 20
1044.014945652174
 30
0.0
 11
-14.85572879607116
 21
850.014945652174
 31
0.0
  0
LINE
  5
173
330
70
100
AcDbEntity
  8
0
 62
     2
100
AcDbLine
 10
-14.85572879607116
 20
1044.014945652174
 30
0.0
 11
-723.597976109498
 21
1044.014945652174
 31
0.0
  0
LINE
  5
174
330
70
100
AcDbEntity
  8
0
 62
     2
100
AcDbLine
 10
-14.85572879607116
 20
850.014945652174
 30
0.0
 11
-723.597976109498
 21
850.014945652174
 31
0.0
  0
LINE
  5
175
330
70
100
AcDbEntity
  8
0
 62
     2
100
AcDbLine
 10
-723.597976109498
 20
1044.014945652174
 30
0.0
 11
-723.597976109498
 21
850.014945652174
 31
0.0
  0
LINE
  5
176
330
70
100
AcDbEntity
  8
0
 62
     2
100
AcDbLine
 10
-912.9282491868476
 20
1044.014945652174
 30
0.0
 11
-1547.568078752676
 21
1044.014945652174
 31
0.0
  0
LINE
  5
177
330
70
100
AcDbEntity
  8
0
 62
     2
100
AcDbLine
 10
-912.9282491868476
 20
850.014945652174
 30
0.0
 11
-1547.568078752676
 21
850.014945652174
 31
0.0
  0
LINE
  5
178
330
70
100
AcDbEntity
  8
0
 62
     2
100
AcDbLine
 10
-1547.568078752676
 20
1044.014945652174
 30
0.0
 11
-1547.568078752676
 21
850.014945652174
 31
0.0
  0
ARC
  5
179
330
70
100
AcDbEntity
  8
0
 62
     2
100
AcDbCircle
 10
-909.9282491868476
 20
842.734364140427
 30
0.0
 40
3.0
100
AcDbArc
 50
180.0
 51
287.8714329101783
  0
ARC
  5
17A
330
70
100
AcDbEntity
  8
0
 62
     2
100
AcDbCircle
 10
-909.9282491868476
 20
1051.295527163921
 30
0.0
 40
3.0
100
AcDbArc
 50
72.12856708982112
 51
180.0
  0
ENDBLK
  5
72
330
70
100
AcDbEntity
  8
0
100
AcDbBlockEnd
  0
BLOCK
  5
74
330
73
100
AcDbEntity
  8
0
100
AcDbBlockBegin
  2
GROUP_13
 70
     0
 71
     0
 10
0.0
 20
0.0
 30
0.0
  3
GROUP_13
  1

  0
LINE
  5
17B
330
73
100
AcDbEntity
  8
0
  6
CENTER
 62
     9
100
AcDbLine
 10
1321.250000000001
 20
-34.69062213570405
 30
0.0
 11
1321.250000000001
 21
-1252.560646987357
 31
0.0
  0
LINE
  5
17C
330
73
100
AcDbEntity
  8
0
 62
     7
100
AcDbLine
 10
1174.250000000001
 20
-202.2206247288368
 30
0.0
 11
1129.250000000001
 21
-202.2206247288368
 31
0.0
  0
ENDBLK
  5
75
330
73
100
AcDbEntity
  8
0
100
AcDbBlockEnd
  0
BLOCK
  5
77
330
76
100
AcDbEntity
  8
0
100
AcDbBlockBegin
  2
GROUP_14
 70
     0
 71
     0
 10
0.0
 20
0.0
 30
0.0
  3
GROUP_14
  1

  0
LINE
  5
184
330
76
100
AcDbEntity
  8
0
 62
     7
100
AcDbLine
 10
1174.250000000001
 20
-131.5139876805237
 30
0.0
 11
1129.250000000001
 21
-131.5139876805237
 31
0.0
  0
LINE
  5
185
330
76
100
AcDbEntity
  8
0
 62
     7
100
AcDbLine
 10
1129.250000000001
 20
-131.5139876805237
 30
0.0
 11
1129.250000000001
 21
-389.6434151316529
 31
0.0
  0
LINE
  5
186
330
76
100
AcDbEntity
  8
0
 62
     7
100
AcDbLine
 10
1129.250000000001
 20
-389.6434151316529
 30
0.0
 11
1174.250000000001
 21
-389.6434151316529
 31
0.0
  0
ENDBLK
  5
78
330
76
100
AcDbEntity
  8
0
100
AcDbBlockEnd
  0
BLOCK
  5
7A
330
79
100
AcDbEntity
  8
0
100
AcDbBlockBegin
  2
GROUP_15
 70
     0
 71
     0
 10
0.0
 20
0.0
 30
0.0
  3
GROUP_15
  1

  0
LINE
  5
187
330
79
100
AcDbEntity
  8
0
 62
     7
100
AcDbLine
 10
1468.250000000001
 20
-131.5204390601984
 30
0.0
 11
1578.250000000001
 21
-131.5204390601984
 31
0.0
  0
LINE
  5
188
330
79
100
AcDbEntity
  8
0
 62
     7
100
AcDbLine
 10
1578.250000000001
 20
-131.5204390601984
 30
0.0
 11
1578.250000000001
 21
-425.8775675465179
 31
0.0
  0
LINE
  5
189
330
79
100
AcDbEntity
  8
0
 62
     7
100
AcDbLine
 10
1469.850000000001
 20
-234.3532884482374
 30
0.0
 11
1578.250000000001
 21
-234.3532884482374
 31
0.0
  0
LINE
  5
18A
330
79
100
AcDbEntity
  8
0
 62
     7
100
AcDbLine
 10
1578.250000000001
 20
-425.8775675465179
 30
0.0
 11
1468.250000000001
 21
-425.8775675465179
 31
0.0
  0
ENDBLK
  5
7B
330
79
100
AcDbEntity
  8
0
100
AcDbBlockEnd
  0
BLOCK
  5
7D
330
7C
100
AcDbEntity
  8
0
100
AcDbBlockBegin
  2
GROUP_16
 70
     0
 71
     0
 10
0.0
 20
0.0
 30
0.0
  3
GROUP_16
  1

  0
LINE
  5
18C
330
7C
100
AcDbEntity
  8
0
  6
CENTER
 62
     9
100
AcDbLine
 10
1246.250000000001
 20
-987.6716426458374
 30
0.0
 11
1246.250000000001
 21
-1030.424632398539
 31
0.0
  0
LINE
  5
18D
330
7C
100
AcDbEntity
  8
0
  6
CENTER
 62
     9
100
AcDbLine
 10
1396.250000000001
 20
-987.6716426458374
 30
0.0
 11
1396.250000000001
 21
-1030.424632398539
 31
0.0
  0
ENDBLK
  5
7E
330
7C
100
AcDbEntity
  8
0
100
AcDbBlockEnd
  0
BLOCK
  5
80
330
7F
100
AcDbEntity
  8
0
100
AcDbBlockBegin
  2
GROUP_17
 70
     0
 71
     0
 10
0.0
 20
0.0
 30
0.0
  3
GROUP_17
  1

  0
LINE
  5
18E
330
7F
100
AcDbEntity
  8
0
 62
    32
100
AcDbLine
 10
1091.250000000001
 20
-1001.257327469612
 30
0.0
 11
1091.250000000001
 21
-1017.257327469612
 31
0.0
  0
LINE
  5
18F
330
7F
100
AcDbEntity
  8
0
 62
    32
100
AcDbLine
 10
1551.250000000001
 20
-1001.257327469612
 30
0.0
 11
1091.250000000001
 21
-1001.257327469612
 31
0.0
  0
LINE
  5
190
330
7F
100
AcDbEntity
  8
0
 62
    32
100
AcDbLine
 10
1551.250000000001
 20
-1017.257327469612
 30
0.0
 11
1551.250000000001
 21
-1001.257327469612
 31
0.0
  0
LINE
  5
191
330
7F
100
AcDbEntity
  8
0
 62
    32
100
AcDbLine
 10
1154.250000000001
 20
-589.2573274696115
 30
0.0
 11
1174.250000000001
 21
-589.2573274696115
 31
0.0
  0
LINE
  5
192
330
7F
100
AcDbEntity
  8
0
 62
    32
100
AcDbLine
 10
1091.250000000001
 20
-1001.257327469612
 30
0.0
 11
1091.250000000001
 21
-1017.257327469612
 31
0.0
  0
LINE
  5
193
330
7F
100
AcDbEntity
  8
0
 62
    32
100
AcDbLine
 10
1091.250000000001
 20
-1017.257327469612
 30
0.0
 11
1551.250000000001
 21
-1017.257327469612
 31
0.0
  0
LINE
  5
194
330
7F
100
AcDbEntity
  8
0
 62
    32
100
AcDbLine
 10
1174.250000000001
 20
-589.2573274696115
 30
0.0
 11
1174.250000000001
 21
-1001.257327469612
 31
0.0
  0
LINE
  5
195
330
7F
100
AcDbEntity
  8
0
 62
    32
100
AcDbLine
 10
1468.250000000002
 20
-1001.257327469612
 30
0.0
 11
1468.250000000002
 21
-589.2573274696115
 31
0.0
  0
LINE
  5
196
330
7F
100
AcDbEntity
  8
0
 62
    32
100
AcDbLine
 10
1468.250000000002
 20
-589.2573274696115
 30
0.0
 11
1488.250000000002
 21
-589.2573274696115
 31
0.0
  0
LINE
  5
197
330
7F
100
AcDbEntity
  8
0
 62
    32
100
AcDbLine
 10
1488.250000000002
 20
-589.2573274696115
 30
0.0
 11
1488.250000000002
 21
-1001.257327469612
 31
0.0
  0
LINE
  5
198
330
7F
100
AcDbEntity
  8
0
 62
    32
100
AcDbLine
 10
1154.250000000001
 20
-589.2573274696115
 30
0.0
 11
1154.250000000001
 21
-1001.257327469612
 31
0.0
  0
ENDBLK
  5
81
330
7F
100
AcDbEntity
  8
0
100
AcDbBlockEnd
  0
BLOCK
  5
83
330
82
100
AcDbEntity
  8
0
100
AcDbBlockBegin
  2
GROUP_18
 70
     0
 71
     0
 10
0.0
 20
0.0
 30
0.0
  3
GROUP_18
  1

  0
LINE
  5
199
330
82
100
AcDbEntity
  8
0
 62
     7
100
AcDbLine
 10
1092.049975136823
 20
-230.7995467241592
 30
0.0
 11
1014.550008818768
 21
-232.8289547316065
 31
0.0
  0
LINE
  5
19A
330
82
100
AcDbEntity
  8
0
 62
     7
100
AcDbLine
 10
1092.050015690923
 20
-230.7995045943681
 30
0.0
 11
1092.050015690923
 21
-382.7995153232038
 31
0.0
  0
LINE
  5
19B
330
82
100
AcDbEntity
  8
0
 62
     7
100
AcDbLine
 10
1092.049961934265
 20
-382.7994879303178
 30
0.0
 11
1014.549995616211
 21
-380.7700799228705
 31
0.0
  0
LINE
  5
19C
330
82
100
AcDbEntity
  8
0
 62
     7
100
AcDbLine
 10
1014.550033259392
 20
-232.8289539967763
 30
0.0
 11
1014.550033259392
 21
-380.7701345853442
 31
0.0
  0
LINE
  5
19D
330
82
100
AcDbEntity
  8
0
 62
     7
100
AcDbLine
 10
1009.549972373249
 20
-249.2995650781795
 30
0.0
 11
1009.549972373249
 21
-332.2995320870095
 31
0.0
  0
LINE
  5
19E
330
82
100
AcDbEntity
  8
0
 62
     7
100
AcDbLine
 10
1014.550033259392
 20
-248.2995345904045
 30
0.0
 11
1010.550002861024
 21
-248.2995345904045
 31
0.0
  0
LINE
  5
19F
330
82
100
AcDbEntity
  8
0
 62
     7
100
AcDbLine
 10
1014.550033259392
 20
-333.2995625747844
 30
0.0
 11
1010.550002861024
 21
-333.2995625747844
 31
0.0
  0
LINE
  5
1A0
330
82
100
AcDbEntity
  8
0
 62
     7
100
AcDbLine
 10
1010.549929072152
 20
-333.2995001492988
 30
0.0
 11
1009.549992802952
 21
-332.2995637958106
 31
0.0
  0
LINE
  5
1A1
330
82
100
AcDbEntity
  8
0
 62
     7
100
AcDbLine
 10
1009.549988208947
 20
-249.2995495667432
 30
0.0
 11
1010.549989299995
 21
-248.2995485599886
 31
0.0
  0
LINE
  5
1A2
330
82
100
AcDbEntity
  8
0
 62
     7
100
AcDbLine
 10
1106.549979233588
 20
-231.1792033081739
 30
0.0
 11
1092.049975792775
 21
-230.7995073613392
 31
0.0
  0
LINE
  5
1A3
330
82
100
AcDbEntity
  8
0
 62
     7
100
AcDbLine
 10
1110.549993185221
 20
-248.2995313219289
 30
0.0
 11
1111.549994234123
 21
-249.2995323708304
 31
0.0
  0
LINE
  5
1A4
330
82
100
AcDbEntity
  8
0
 62
     7
100
AcDbLine
 10
1111.550015109778
 20
-249.2994735254478
 30
0.0
 11
1111.550015109778
 21
-290.7995028062286
 31
0.0
  0
LINE
  5
1A5
330
82
100
AcDbEntity
  8
0
 62
     7
100
AcDbLine
 10
1106.550000000001
 20
-231.1792195488719
 30
0.0
 11
1106.550000000001
 21
-382.4198919214315
 31
0.0
  0
LINE
  5
1A6
330
82
100
AcDbEntity
  8
0
 62
     7
100
AcDbLine
 10
1111.550015109778
 20
-290.7995028062286
 30
0.0
 11
1111.550015109778
 21
-332.2995320870095
 31
0.0
  0
LINE
  5
1A7
330
82
100
AcDbEntity
  8
0
 62
     7
100
AcDbLine
 10
1106.550000000001
 20
-248.2995345904045
 30
0.0
 11
1110.550030398369
 21
-248.2995345904045
 31
0.0
  0
LINE
  5
1A8
330
82
100
AcDbEntity
  8
0
 62
     7
100
AcDbLine
 10
1106.550000000001
 20
-333.2994710220528
 30
0.0
 11
1110.550030398369
 21
-333.2994710220528
 31
0.0
  0
LINE
  5
1A9
330
82
100
AcDbEntity
  8
0
 62
     7
100
AcDbLine
 10
1110.550082199363
 20
-333.2995314644097
 30
0.0
 11
1111.550083248264
 21
-332.2995304155082
 31
0.0
  0
LINE
  5
1AA
330
82
100
AcDbEntity
  8
0
 62
     7
100
AcDbLine
 10
1106.550038795967
 20
-382.4198530283571
 30
0.0
 11
1092.050035355154
 21
-382.799548975192
 31
0.0
  0
LINE
  5
1AB
330
82
100
AcDbEntity
  8
0
 62
     7
100
AcDbLine
 10
1007.55000295043
 20
-313.2995021356765
 30
0.0
 11
1009.550018149614
 21
-313.2995021356765
 31
0.0
  0
LINE
  5
1AC
330
82
100
AcDbEntity
  8
0
 62
     7
100
AcDbLine
 10
1007.55000295043
 20
-268.299503476781
 30
0.0
 11
1009.550018149614
 21
-268.299503476781
 31
0.0
  0
LINE
  5
1AD
330
82
100
AcDbEntity
  8
0
 62
     7
100
AcDbLine
 10
1005.550033527612
 20
-269.4542123046726
 30
0.0
 11
1005.550033527612
 21
-312.1447933077848
 31
0.0
  0
LINE
  5
1AE
330
82
100
AcDbEntity
  8
0
 62
     7
100
AcDbLine
 10
1115.54999973178
 20
-269.4542123046726
 30
0.0
 11
1115.54999973178
 21
-312.1447933077848
 31
0.0
  0
LINE
  5
1AF
330
82
100
AcDbEntity
  8
0
 62
     7
100
AcDbLine
 10
1111.550015109778
 20
-313.2995021356765
 30
0.0
 11
1113.550030308962
 21
-313.2995021356765
 31
0.0
  0
LINE
  5
1B0
330
82
100
AcDbEntity
  8
0
 62
     7
100
AcDbLine
 10
1111.550015109778
 20
-268.299503476781
 30
0.0
 11
1113.550030308962
 21
-268.299503476781
 31
0.0
  0
LINE
  5
1B1
330
82
100
AcDbEntity
  8
0
 62
     7
100
AcDbLine
 10
1005.550027599364
 20
-269.4542414738725
 30
0.0
 11
1007.550002304751
 21
-268.2995555186203
 31
0.0
  0
LINE
  5
1B2
330
82
100
AcDbEntity
  8
0
 62
     7
100
AcDbLine
 10
1005.549967946441
 20
-312.1447875920455
 30
0.0
 11
1007.549982295323
 21
-313.2994964354809
 31
0.0
  0
LINE
  5
1B3
330
82
100
AcDbEntity
  8
0
 62
     7
100
AcDbLine
 10
1009.550018149614
 20
-313.2995021356765
 30
0.0
 11
1009.550018149614
 21
-268.299503476781
 31
0.0
  0
LINE
  5
1B4
330
82
100
AcDbEntity
  8
0
 62
     7
100
AcDbLine
 10
1111.550015109778
 20
-313.2995021356765
 30
0.0
 11
1111.550015109778
 21
-268.299503476781
 31
0.0
  0
LINE
  5
1B5
330
82
100
AcDbEntity
  8
0
 62
     7
100
AcDbLine
 10
1115.549953923006
 20
-269.4541810100093
 30
0.0
 11
1113.550018861115
 21
-268.2995179429402
 31
0.0
  0
LINE
  5
1B6
330
82
100
AcDbEntity
  8
0
 62
     7
100
AcDbLine
 10
1115.550002641682
 20
-312.1447833408702
 30
0.0
 11
1113.550008114547
 21
-313.2994807402139
 31
0.0
  0
LINE
  5
1B7
330
82
100
AcDbEntity
  8
0
 62
     7
100
AcDbLine
 10
1028.05004277629
 20
-404.3063649605438
 30
0.0
 11
1093.04995559454
 21
-404.3063649605438
 31
0.0
  0
LINE
  5
1B8
330
82
100
AcDbEntity
  8
0
 62
     7
100
AcDbLine
 10
1103.050016629696
 20
-394.3061973968981
 30
0.0
 11
1103.050016629696
 21
-382.5115043328406
 31
0.0
  0
LINE
  5
1B9
330
82
100
AcDbEntity
  8
0
 62
     7
100
AcDbLine
 10
1018.050016629696
 20
-394.3062912494803
 30
0.0
 11
1018.050016629696
 21
-380.8617311971674
 31
0.0
  0
ARC
  5
1BA
330
82
100
AcDbEntity
  8
0
 62
     7
100
AcDbCircle
 10
1093.04995559454
 20
-394.3063039253875
 30
0.0
 40
10.0
100
AcDbArc
 50
269.999909386289
 51
359.9998367587029
  0
ARC
  5
1BB
330
82
100
AcDbEntity
  8
0
 62
     7
100
AcDbCircle
 10
1028.050077664852
 20
-394.3063039253875
 30
0.0
 40
10.0
100
AcDbArc
 50
179.9999273724009
 51
269.9998001032623
  0
LINE
  5
1BC
330
82
100
AcDbEntity
  8
0
  6
CENTER
 62
     9
100
AcDbLine
 10
1060.550016629696
 20
-226.5156607278958
 30
0.0
 11
1060.550016629696
 21
-411.3439404368691
 31
0.0
  0
LINE
  5
1BD
330
82
100
AcDbEntity
  8
0
  6
CENTER
 62
     9
100
AcDbLine
 10
1600.911515573902
 20
-290.7995028062286
 30
0.0
 11
982.1439820097882
 21
-290.7995028062286
 31
0.0
  0
LINE
  5
1BE
330
82
100
AcDbEntity
  8
0
  6
CENTER
 62
     9
100
AcDbLine
 10
1011.595626609159
 20
-369.7995538576054
 30
0.0
 11
1110.504803348935
 21
-369.7995538576054
 31
0.0
  0
LINE
  5
1BF
330
82
100
AcDbEntity
  8
0
  6
CENTER
 62
     9
100
AcDbLine
 10
1012.141097784308
 20
-243.799534724515
 30
0.0
 11
1109.780026148856
 21
-243.799534724515
 31
0.0
  0
ENDBLK
  5
84
330
82
100
AcDbEntity
  8
0
100
AcDbBlockEnd
  0
BLOCK
  5
86
330
85
100
AcDbEntity
  8
0
100
AcDbBlockBegin
  2
GROUP_19
 70
     0
 71
     0
 10
0.0
 20
0.0
 30
0.0
  3
GROUP_19
  1

  0
LINE
  5
1C0
330
85
100
AcDbEntity
  8
0
 62
     7
100
AcDbLine
 10
1106.250000000001
 20
-856.5817338659945
 30
0.0
 11
1136.250000000001
 21
-856.5817338659945
 31
0.0
  0
LINE
  5
1C1
330
85
100
AcDbEntity
  8
0
 62
     7
100
AcDbLine
 10
1136.250000000001
 20
-856.5817338659945
 30
0.0
 11
1136.250000000001
 21
-1106.581733865995
 31
0.0
  0
LINE
  5
1C2
330
85
100
AcDbEntity
  8
0
 62
     7
100
AcDbLine
 10
1106.250000000001
 20
-856.5817338659945
 30
0.0
 11
1106.250000000001
 21
-1106.581733865995
 31
0.0
  0
LINE
  5
1C3
330
85
100
AcDbEntity
  8
0
 62
     7
100
AcDbLine
 10
1151.250000000001
 20
-1106.581733865995
 30
0.0
 11
1151.250000000001
 21
-1112.581733865995
 31
0.0
  0
LINE
  5
1C4
330
85
100
AcDbEntity
  8
0
 62
     7
100
AcDbLine
 10
1091.250000000001
 20
-1106.581733865995
 30
0.0
 11
1091.250000000001
 21
-1112.581733865995
 31
0.0
  0
LINE
  5
1C5
330
85
100
AcDbEntity
  8
0
 62
     7
100
AcDbLine
 10
1091.250000000001
 20
-1106.581733865995
 30
0.0
 11
1151.250000000001
 21
-1106.581733865995
 31
0.0
  0
LINE
  5
1C6
330
85
100
AcDbEntity
  8
0
 62
     7
100
AcDbLine
 10
1151.250000000001
 20
-1112.581733865995
 30
0.0
 11
1091.250000000001
 21
-1112.581733865995
 31
0.0
  0
LINE
  5
1C7
330
85
100
AcDbEntity
  8
0
  6
CENTER
 62
     9
100
AcDbLine
 10
1121.250000000001
 20
-836.483907779038
 30
0.0
 11
1121.250000000001
 21
-1215.26651647469
 31
0.0
  0
LINE
  5
1C8
330
85
100
AcDbEntity
  8
0
  6
CENTER
 62
     9
100
AcDbLine
 10
1095.949997000001
 20
-1165.081733865995
 30
0.0
 11
1147.749990000001
 21
-1165.081733865995
 31
0.0
  0
ENDBLK
  5
87
330
85
100
AcDbEntity
  8
0
100
AcDbBlockEnd
  0
BLOCK
  5
89
330
88
100
AcDbEntity
  8
0
100
AcDbBlockBegin
  2
GROUP_20
 70
     0
 71
     0
 10
0.0
 20
0.0
 30
0.0
  3
GROUP_20
  1

  0
LINE
  5
1CA
330
88
100
AcDbEntity
  8
0
 62
     7
100
AcDbLine
 10
1108.250000000001
 20
-1202.581733865995
 30
0.0
 11
1134.250000000001
 21
-1202.581733865995
 31
0.0
  0
LINE
  5
1CB
330
88
100
AcDbEntity
  8
0
 62
     7
100
AcDbLine
 10
1134.250000000001
 20
-1127.581733865995
 30
0.0
 11
1108.250000000001
 21
-1127.581733865995
 31
0.0
  0
LINE
  5
1CC
330
88
100
AcDbEntity
  8
0
 62
     7
100
AcDbLine
 10
1108.250000000001
 20
-1127.581733865995
 30
0.0
 11
1108.250000000001
 21
-1202.581733865995
 31
0.0
  0
LINE
  5
1CD
330
88
100
AcDbEntity
  8
0
 62
     7
100
AcDbLine
 10
1134.250000000001
 20
-1202.581733865995
 30
0.0
 11
1134.250000000001
 21
-1127.581733865995
 31
0.0
  0
ENDBLK
  5
8A
330
88
100
AcDbEntity
  8
0
100
AcDbBlockEnd
  0
BLOCK
  5
8C
330
8B
100
AcDbEntity
  8
0
100
AcDbBlockBegin
  2
GROUP_21
 70
     0
 71
     0
 10
0.0
 20
0.0
 30
0.0
  3
GROUP_21
  1

  0
LINE
  5
1CE
330
8B
100
AcDbEntity
  8
0
 62
     7
100
AcDbLine
 10
1506.250000000001
 20
-856.5817338659945
 30
0.0
 11
1536.250000000001
 21
-856.5817338659945
 31
0.0
  0
LINE
  5
1CF
330
8B
100
AcDbEntity
  8
0
 62
     7
100
AcDbLine
 10
1536.250000000001
 20
-856.5817338659945
 30
0.0
 11
1536.250000000001
 21
-1106.581733865995
 31
0.0
  0
LINE
  5
1D0
330
8B
100
AcDbEntity
  8
0
 62
     7
100
AcDbLine
 10
1506.250000000001
 20
-856.5817338659945
 30
0.0
 11
1506.250000000001
 21
-1106.581733865995
 31
0.0
  0
LINE
  5
1D1
330
8B
100
AcDbEntity
  8
0
 62
     7
100
AcDbLine
 10
1551.250000000001
 20
-1106.581733865995
 30
0.0
 11
1551.250000000001
 21
-1112.581733865995
 31
0.0
  0
LINE
  5
1D2
330
8B
100
AcDbEntity
  8
0
 62
     7
100
AcDbLine
 10
1491.250000000001
 20
-1106.581733865995
 30
0.0
 11
1491.250000000001
 21
-1112.581733865995
 31
0.0
  0
LINE
  5
1D3
330
8B
100
AcDbEntity
  8
0
 62
     7
100
AcDbLine
 10
1491.250000000001
 20
-1106.581733865995
 30
0.0
 11
1551.250000000001
 21
-1106.581733865995
 31
0.0
  0
LINE
  5
1D4
330
8B
100
AcDbEntity
  8
0
 62
     7
100
AcDbLine
 10
1551.250000000001
 20
-1112.581733865995
 30
0.0
 11
1491.250000000001
 21
-1112.581733865995
 31
0.0
  0
LINE
  5
1D5
330
8B
100
AcDbEntity
  8
0
  6
CENTER
 62
     9
100
AcDbLine
 10
1521.250000000001
 20
-836.483907779038
 30
0.0
 11
1521.250000000001
 21
-1215.26651647469
 31
0.0
  0
LINE
  5
1D6
330
8B
100
AcDbEntity
  8
0
  6
CENTER
 62
     9
100
AcDbLine
 10
1495.949997
 20
-1165.081733865995
 30
0.0
 11
1547.749990000001
 21
-1165.081733865995
 31
0.0
  0
ENDBLK
  5
8D
330
8B
100
AcDbEntity
  8
0
100
AcDbBlockEnd
  0
BLOCK
  5
8F
330
8E
100
AcDbEntity
  8
0
100
AcDbBlockBegin
  2
GROUP_22
 70
     0
 71
     0
 10
0.0
 20
0.0
 30
0.0
  3
GROUP_22
  1

  0
LINE
  5
1D8
330
8E
100
AcDbEntity
  8
0
 62
     7
100
AcDbLine
 10
1508.250000000001
 20
-1202.581733865995
 30
0.0
 11
1534.250000000001
 21
-1202.581733865995
 31
0.0
  0
LINE
  5
1D9
330
8E
100
AcDbEntity
  8
0
 62
     7
100
AcDbLine
 10
1534.250000000001
 20
-1127.581733865995
 30
0.0
 11
1508.250000000001
 21
-1127.581733865995
 31
0.0
  0
LINE
  5
1DA
330
8E
100
AcDbEntity
  8
0
 62
     7
100
AcDbLine
 10
1508.250000000001
 20
-1127.581733865995
 30
0.0
 11
1508.250000000001
 21
-1202.581733865995
 31
0.0
  0
LINE
  5
1DB
330
8E
100
AcDbEntity
  8
0
 62
     7
100
AcDbLine
 10
1534.250000000001
 20
-1202.581733865995
 30
0.0
 11
1534.250000000001
 21
-1127.581733865995
 31
0.0
  0
ENDBLK
  5
90
330
8E
100
AcDbEntity
  8
0
100
AcDbBlockEnd
  0
BLOCK
  5
92
330
91
100
AcDbEntity
  8
0
100
AcDbBlockBegin
  2
GROUP_23
 70
     0
 71
     0
 10
0.0
 20
0.0
 30
0.0
  3
GROUP_23
  1

  0
LINE
  5
1DC
330
91
100
AcDbEntity
  8
0
 62
     2
100
AcDbLine
 10
1174.250000000001
 20
-84.69062213570405
 30
0.0
 11
1468.250000000001
 21
-84.69062213570405
 31
0.0
  0
LINE
  5
1DD
330
91
100
AcDbEntity
  8
0
 62
     2
100
AcDbLine
 10
1468.250000000001
 20
-84.69062213570405
 30
0.0
 11
1468.250000000001
 21
-1202.581733865995
 31
0.0
  0
LINE
  5
1DE
330
91
100
AcDbEntity
  8
0
 62
     2
100
AcDbLine
 10
1468.250000000001
 20
-1202.581733865995
 30
0.0
 11
1174.250000000001
 21
-1202.581733865995
 31
0.0
  0
LINE
  5
1DF
330
91
100
AcDbEntity
  8
0
 62
     2
100
AcDbLine
 10
1174.250000000001
 20
-1202.581733865995
 30
0.0
 11
1174.250000000001
 21
-84.69062213570396
 31
0.0
  0
LINE
  5
1E0
330
91
100
AcDbEntity
  8
0
 62
     2
100
AcDbLine
 10
1174.250000000001
 20
-494.6906221356995
 30
0.0
 11
1468.250000000001
 21
-494.6906221356995
 31
0.0
  0
LINE
  5
1E1
330
91
100
AcDbEntity
  8
0
 62
     2
100
AcDbLine
 10
1468.250000000001
 20
-149.6906221357184
 30
0.0
 11
1174.250000000001
 21
-149.6906221357184
 31
0.0
  0
LINE
  5
1E2
330
91
100
AcDbEntity
  8
0
 62
     2
100
AcDbLine
 10
1229.250000000001
 20
-494.6906221356995
 30
0.0
 11
1229.250000000001
 21
-164.6861609071997
 31
0.0
  0
LINE
  5
1E3
330
91
100
AcDbEntity
  8
0
 62
     2
100
AcDbLine
 10
1413.250000000001
 20
-494.6906221356996
 30
0.0
 11
1413.250000000001
 21
-164.6861609071997
 31
0.0
  0
LINE
  5
1E4
330
91
100
AcDbEntity
  8
0
 62
     2
100
AcDbLine
 10
1229.250000000001
 20
-164.6861609071997
 30
0.0
 11
1413.250000000001
 21
-164.6861609071997
 31
0.0
  0
LINE
  5
1E5
330
91
100
AcDbEntity
  8
0
  6
DASHED2
 62
     2
100
AcDbLine
 10
1174.250000000001
 20
-1040.581733847911
 30
0.0
 11
1468.250000000001
 21
-1040.581733847911
 31
0.0
  0
ENDBLK
  5
93
330
91
100
AcDbEntity
  8
0
100
AcDbBlockEnd
  0
BLOCK
  5
95
330
94
100
AcDbEntity
  8
0
100
AcDbBlockBegin
  2
GROUP_24
 70
     0
 71
     0
 10
0.0
 20
0.0
 30
0.0
  3
GROUP_24
  1

  0
ENDBLK
  5
96
330
94
100
AcDbEntity
  8
0
100
AcDbBlockEnd
  0
BLOCK
  5
98
330
97
100
AcDbEntity
  8
0
100
AcDbBlockBegin
  2
GROUP_25
 70
     0
 71
     0
 10
0.0
 20
0.0
 30
0.0
  3
GROUP_25
  1

  0
LINE
  5
1EE
330
97
100
AcDbEntity
  8
0
  6
CENTER
 62
     9
100
AcDbLine
 10
-117.7844002565985
 20
-171.7127021321657
 30
0.0
 11
103.8209871916188
 21
-357.6617010068628
 31
0.0
  0
LINE
  5
1EF
330
97
100
AcDbEntity
  8
0
  6
CENTER
 62
     9
100
AcDbLine
 10
-16.21325028633055
 20
-338.8879193379457
 30
0.0
 11
91.00191094996967
 21
-211.1138657540171
 31
0.0
  0
LINE
  5
1F0
330
97
100
AcDbEntity
  8
0
  6
CENTER
 62
     9
100
AcDbLine
 10
-877.5729091868477
 20
-1252.581733869505
 30
0.0
 11
-877.5729091868477
 21
-789.5817338483373
 31
0.0
  0
LINE
  5
1F1
330
97
100
AcDbEntity
  8
0
  6
CENTER
 62
     9
100
AcDbLine
 10
-561.1965541651827
 20
-1105.053016660228
 30
0.0
 11
-877.5729091868477
 21
-839.5817338483366
 31
0.0
  0
LINE
  5
1F2
330
97
100
AcDbEntity
  8
0
  6
CENTER
 62
     9
100
AcDbLine
 10
-927.5769826685621
 20
-839.5822270562173
 30
0.0
 11
-827.5769827569291
 21
-839.5812407208143
 31
0.0
  0
LINE
  5
1F3
330
97
100
AcDbEntity
  8
0
  6
CENTER
 62
     9
100
AcDbLine
 10
-1547.568078752676
 20
-990.5896739040043
 30
0.0
 11
-1547.568078752676
 21
-1252.590633831093
 31
0.0
  0
LINE
  5
1F4
330
97
100
AcDbEntity
  8
0
  6
CENTER
 62
     9
100
AcDbLine
 10
-1489.94554232012
 20
-1121.589673913044
 30
0.0
 11
-1678.567162015782
 21
-1121.589673913044
 31
0.0
  0
ENDBLK
  5
99
330
97
100
AcDbEntity
  8
0
100
AcDbBlockEnd
  0
BLOCK
  5
9B
330
9A
100
AcDbEntity
  8
0
100
AcDbBlockBegin
  2
GROUP_26
 70
     0
 71
     0
 10
0.0
 20
0.0
 30
0.0
  3
GROUP_26
  1

  0
LINE
  5
1F5
330
9A
100
AcDbEntity
  8
0
 62
     2
100
AcDbLine
 10
-877.5729091868477
 20
-1202.581733865994
 30
0.0
 11
-1567.981207972155
 21
-1202.589915829193
 31
0.0
  0
ARC
  5
1F6
330
9A
100
AcDbEntity
  8
0
 62
     2
100
AcDbCircle
 10
-1547.568078752679
 20
-1121.589673913044
 30
0.0
 40
81.0
100
AcDbArc
 50
89.99999999998302
 51
179.999999999966
  0
LINE
  5
1F7
330
9A
100
AcDbEntity
  8
0
 62
     2
100
AcDbLine
 10
-1628.568078752679
 20
-1121.589673913044
 30
0.0
 11
-1628.567163752679
 21
-1124.589673913044
 31
0.0
  0
ARC
  5
1F8
330
9A
100
AcDbEntity
  8
0
 62
     2
100
AcDbCircle
 10
-1547.568078752679
 20
-1124.204303913044
 30
0.0
 40
81.0
100
AcDbArc
 50
180.2725949999659
 51
255.4032811010144
  0
LINE
  5
1F9
330
9A
100
AcDbEntity
  8
0
 62
     2
100
AcDbLine
 10
-877.5729091868477
 20
-1040.581733854938
 30
0.0
 11
-1547.568877684353
 21
-1040.589673916984
 31
0.0
  0
ARC
  5
1FA
330
9A
100
AcDbEntity
  8
0
 62
     2
100
AcDbCircle
 10
-1075.072909185922
 20
-1132.389673865994
 30
0.0
 40
12.5
100
AcDbArc
 50
90.0
 51
272.0422827366637
  0
ARC
  5
1FB
330
9A
100
AcDbEntity
  8
0
 62
     2
100
AcDbCircle
 10
-920.0729091859232
 20
-1132.381733865994
 30
0.0
 40
12.5
100
AcDbArc
 50
270.0000000000002
 51
90.0
  0
LINE
  5
1FC
330
9A
100
AcDbEntity
  8
0
 62
     2
100
AcDbLine
 10
-920.0729091868473
 20
-1119.881733865994
 30
0.0
 11
-1075.072909185922
 21
-1119.889673865994
 31
0.0
  0
LINE
  5
1FD
330
9A
100
AcDbEntity
  8
0
 62
     2
100
AcDbLine
 10
-1075.072909185922
 20
-1144.889673865994
 30
0.0
 11
-920.0729091868473
 21
-1144.881733865994
 31
0.0
  0
ARC
  5
1FE
330
9A
100
AcDbEntity
  8
0
 62
     2
100
AcDbCircle
 10
-877.5729091868477
 20
-839.5817338483366
 30
0.0
 40
201.0000000136296
100
AcDbArc
 50
270.0
 51
320.0
  0
ARC
  5
1FF
330
9A
100
AcDbEntity
  8
0
 62
     2
100
AcDbCircle
 10
-877.572909186847
 20
-839.5817338483373
 30
0.0
 40
363.0000000176573
100
AcDbArc
 50
269.9999999999999
 51
320.0
  0
LINE
  5
200
330
9A
100
AcDbEntity
  8
0
 62
     2
100
AcDbLine
 10
-723.597976109498
 20
-968.7820434040989
 30
0.0
 11
18.24280940380959
 21
-84.69062213570408
 31
0.0
  0
LINE
  5
201
330
9A
100
AcDbEntity
  8
0
 62
     2
100
AcDbLine
 10
-599.4987763211432
 20
-1072.913636175915
 30
0.0
 11
-78.84102294994318
 21
-452.4178880837568
 31
0.0
  0
LINE
  5
202
330
9A
100
AcDbEntity
  8
0
 62
     2
100
AcDbLine
 10
-202.9400122633954
 20
-348.2860444777198
 30
0.0
 11
-78.84081247503468
 21
-452.4176372495286
 31
0.0
  0
LINE
  5
203
330
9A
100
AcDbEntity
  8
0
 62
     2
100
AcDbLine
 10
-78.84139229699122
 20
-452.4171564735815
 30
0.0
 11
-57.50000000000023
 21
-494.6906221356995
 31
0.0
  0
LINE
  5
204
330
9A
100
AcDbEntity
  8
0
 62
     2
100
AcDbLine
 10
-57.50000000000023
 20
-494.6906221356995
 30
0.0
 11
272.5000000000002
 21
-494.6906221357191
 31
0.0
  0
LINE
  5
205
330
9A
100
AcDbEntity
  8
0
 62
     2
100
AcDbLine
 10
264.0838670112514
 20
-149.6906221357184
 30
0.0
 11
272.5000000000002
 21
-494.6906221356995
 31
0.0
  0
LINE
  5
206
330
9A
100
AcDbEntity
  8
0
 62
     2
100
AcDbLine
 10
264.0838670112514
 20
-149.6906221357184
 30
0.0
 11
172.5000000000025
 21
-84.69062213570405
 31
0.0
  0
LINE
  5
207
330
9A
100
AcDbEntity
  8
0
 62
     2
100
AcDbLine
 10
18.24280940380959
 20
-84.69062213570405
 30
0.0
 11
172.5000000000025
 21
-84.69062213570405
 31
0.0
  0
LINE
  5
208
330
9A
100
AcDbEntity
  8
0
 62
     2
100
AcDbLine
 10
-877.5729091938754
 20
-1040.581733854938
 30
0.0
 11
-912.9282491938754
 21
-1005.226393854938
 31
0.0
  0
LINE
  5
209
330
9A
100
AcDbEntity
  8
0
 62
     2
100
AcDbLine
 10
-915.1909891938751
 20
-1007.489133854938
 30
0.0
 11
-882.0983355634537
 21
-1040.58178748536
 31
0.0
  0
LINE
  5
20A
330
9A
100
AcDbEntity
  8
0
 62
     2
100
AcDbLine
 10
-912.9282491938754
 20
-1005.226393854938
 30
0.0
 11
-915.1909891938751
 21
-1007.489133854938
 31
0.0
  0
ENDBLK
  5
9C
330
9A
100
AcDbEntity
  8
0
100
AcDbBlockEnd
  0
BLOCK
  5
9E
330
9D
100
AcDbEntity
  8
0
100
AcDbBlockBegin
  2
GROUP_27
 70
     0
 71
     0
 10
0.0
 20
0.0
 30
0.0
  3
GROUP_27
  1

  0
LINE
  5
20B
330
9D
100
AcDbEntity
  8
0
  6
CENTER
 62
     9
100
AcDbLine
 10
-294.4764540325591
 20
-421.5996882541321
 30
0.0
 11
-339.4715867106168
 21
-475.2227992724604
 31
0.0
  0
LINE
  5
20C
330
9D
100
AcDbEntity
  8
0
  6
CENTER
 62
     9
100
AcDbLine
 10
-343.7855758807522
 20
-425.9136774242674
 30
0.0
 11
-276.3736648862821
 21
-482.4789870766828
 31
0.0
  0
LINE
  5
20D
330
9D
100
AcDbEntity
  8
0
 62
     2
100
AcDbLine
 10
-333.0437106137514
 20
-467.5623548412707
 30
0.0
 11
-300.1037995596354
 21
-495.2022220577919
 31
0.0
  0
LINE
  5
20E
330
9D
100
AcDbEntity
  8
0
 62
     2
100
AcDbLine
 10
-326.9372283217294
 20
-460.2849326316403
 30
0.0
 11
-293.9973172676133
 21
-487.9247998481616
 31
0.0
  0
LINE
  5
20F
330
9D
100
AcDbEntity
  8
0
 62
     2
100
AcDbLine
 10
-307.0118678729817
 20
-436.5366693458889
 30
0.0
 11
-274.0709014066887
 21
-464.1774221583785
 31
0.0
  0
LINE
  5
210
330
9D
100
AcDbEntity
  8
0
 62
     2
100
AcDbLine
 10
-300.9043301294245
 20
-429.2601326853218
 30
0.0
 11
-267.9644190753084
 21
-456.899999901843
 31
0.0
  0
ARC
  5
211
330
9D
100
AcDbEntity
  8
0
 62
     2
100
AcDbCircle
 10
-316.974020371588
 20
-448.4112437632962
 30
0.0
 40
15.5
100
AcDbArc
 50
49.99490721485542
 51
229.9999999999999
  0
ARC
  5
212
330
9D
100
AcDbEntity
  8
0
 62
     2
100
AcDbCircle
 10
-316.974020371588
 20
-448.4112437632962
 30
0.0
 40
25.0
100
AcDbArc
 50
50.0
 51
230.0
  0
LINE
  5
213
330
9D
100
AcDbEntity
  8
0
 62
     2
100
AcDbLine
 10
-300.1037995596354
 20
-495.2022220577919
 30
0.0
 11
-293.9973172676133
 21
-487.9247998481616
 31
0.0
  0
LINE
  5
214
330
9D
100
AcDbEntity
  8
0
 62
     2
100
AcDbLine
 10
-274.0709014066887
 20
-464.1774221583785
 30
0.0
 11
-267.9644190753084
 21
-456.899999901843
 31
0.0
  0
ENDBLK
  5
9F
330
9D
100
AcDbEntity
  8
0
100
AcDbBlockEnd
  0
BLOCK
  5
A1
330
A0
100
AcDbEntity
  8
0
100
AcDbBlockBegin
  2
GROUP_28
 70
     0
 71
     0
 10
0.0
 20
0.0
 30
0.0
  3
GROUP_28
  1

  0
LINE
  5
215
330
A0
100
AcDbEntity
  8
LAYER0048
 62
     7
100
AcDbLine
 10
-1557.572909214016
 20
-1038.289673854939
 30
0.0
 11
-1557.572909214016
 21
-1040.589673854939
 31
0.0
  0
LINE
  5
216
330
A0
100
AcDbEntity
  8
LAYER0048
 62
     7
100
AcDbLine
 10
-1537.572909214016
 20
-1040.589673854939
 30
0.0
 11
-1537.572909214016
 21
-1038.289673854939
 31
0.0
  0
LINE
  5
217
330
A0
100
AcDbEntity
  8
LAYER0048
 62
     7
100
AcDbLine
 10
-1537.572909214016
 20
-1038.289673854939
 30
0.0
 11
-1622.572909214016
 21
-895.5847238549386
 31
0.0
  0
LINE
  5
218
330
A0
100
AcDbEntity
  8
LAYER0048
 62
     7
100
AcDbLine
 10
-1557.572909214016
 20
-1038.289673854939
 30
0.0
 11
-877.5729092140164
 21
-1038.281733854939
 31
0.0
  0
LINE
  5
219
330
A0
100
AcDbEntity
  8
LAYER0048
 62
     7
100
AcDbLine
 10
-877.5729092140164
 20
-855.5767938549386
 30
0.0
 11
-877.5729092140164
 21
-1040.581733854939
 31
0.0
  0
ARC
  5
21A
330
A0
100
AcDbEntity
  8
LAYER0048
 62
     7
100
AcDbCircle
 10
-887.5729092140164
 20
-855.5767938549386
 30
0.0
 40
10.0
100
AcDbArc
 50
0.0
 51
90.01888899998163
  0
ARC
  5
21B
330
A0
100
AcDbEntity
  8
LAYER0048
 62
     7
100
AcDbCircle
 10
-1617.572909214016
 20
-850.5847238549386
 30
0.0
 40
5.0
100
AcDbArc
 50
90.01888899998163
 51
179.9999999999674
  0
LINE
  5
21C
330
A0
100
AcDbEntity
  8
LAYER0048
 62
     7
100
AcDbLine
 10
-1622.572909214016
 20
-895.5847238549386
 30
0.0
 11
-1622.572909214016
 21
-850.5847238549386
 31
0.0
  0
LINE
  5
21D
330
A0
100
AcDbEntity
  8
LAYER0048
 62
     7
100
AcDbLine
 10
-1617.574549214016
 20
-845.5847238549386
 30
0.0
 11
-887.576199214016
 21
-845.5767938549386
 31
0.0
  0
ARC
  5
21E
330
A0
100
AcDbEntity
  8
LAYER0048
 62
     7
100
AcDbCircle
 10
-1617.572909214016
 20
-860.5847238549386
 30
0.0
 40
5.0
100
AcDbArc
 50
90.01888899998163
 51
179.9999999999674
  0
ARC
  5
21F
330
A0
100
AcDbEntity
  8
LAYER0048
 62
     7
100
AcDbCircle
 10
-887.5729092140164
 20
-865.5767938549386
 30
0.0
 40
10.0
100
AcDbArc
 50
0.0
 51
90.01888899998163
  0
LINE
  5
220
330
A0
100
AcDbEntity
  8
LAYER0048
 62
     7
100
AcDbLine
 10
-1617.574549214016
 20
-855.5847238549386
 30
0.0
 11
-887.576199214016
 21
-855.5767938549386
 31
0.0
  0
LINE
  5
221
330
A0
100
AcDbEntity
  8
LAYER0048
 62
     7
100
AcDbLine
 10
-1622.572909214016
 20
-895.5847238549386
 30
0.0
 11
-877.5729092140164
 21
-895.5847238549386
 31
0.0
  0
ENDBLK
  5
A2
330
A0
100
AcDbEntity
  8
0
100
AcDbBlockEnd
  0
BLOCK
  5
A4
330
A3
100
AcDbEntity
  8
0
100
AcDbBlockBegin
  2
GROUP_29
 70
     0
 71
     0
 10
0.0
 20
0.0
 30
0.0
  3
GROUP_29
  1

  0
LINE
  5
222
330
A3
100
AcDbEntity
  8
0
  6
CENTER
 62
     4
100
AcDbLine
 10
-1277.566765849989
 20
-1133.76647415038
 30
0.0
 11
-877.5727446962858
 21
-1133.761733859212
 31
0.0
  0
LINE
  5
223
330
A3
100
AcDbEntity
  8
0
  6
CENTER
 62
     4
100
AcDbLine
 10
-1447.567783603094
 20
-1164.768488818477
 30
0.0
 11
-877.5733573880768
 21
-1164.76173386865
 31
0.0
  0
LINE
  5
224
330
A3
100
AcDbEntity
  8
0
  6
CENTER
 62
     4
100
AcDbLine
 10
-1277.566765849989
 20
-1133.76647415038
 30
0.0
 11
-1538.491092010252
 21
-1078.632429318457
 31
0.0
  0
LINE
  5
225
330
A3
100
AcDbEntity
  8
0
  6
CENTER
 62
     4
100
AcDbLine
 10
-1447.567783603094
 20
-1164.768488818477
 30
0.0
 11
-1547.248402399311
 21
-1165.4942791215
 31
0.0
  0
CIRCLE
  5
226
330
A3
100
AcDbEntity
  8
0
  6
CENTER
 62
     4
100
AcDbCircle
 10
-1547.568078752676
 20
-1121.589673913044
 30
0.0
 40
43.90576900000417
  0
ARC
  5
227
330
A3
100
AcDbEntity
  8
0
  6
CENTER
 62
     4
100
AcDbCircle
 10
-877.5729091868477
 20
-839.5817338483373
 30
0.0
 40
294.1800000109214
100
AcDbArc
 50
270.0000320368991
 51
320.0000000000001
  0
ARC
  5
228
330
A3
100
AcDbEntity
  8
0
  6
CENTER
 62
     4
100
AcDbCircle
 10
-877.5729091868477
 20
-839.5817338483366
 30
0.0
 40
325.1800000206227
100
AcDbArc
 50
269.9999210282342
 51
320.0
  0
LINE
  5
229
330
A3
100
AcDbEntity
  8
0
  6
CENTER
 62
     4
100
AcDbLine
 10
-628.4705771576321
 20
-1048.603408779475
 30
0.0
 11
-107.8126133115238
 21
-428.1074098530892
 31
0.0
  0
LINE
  5
22A
330
A3
100
AcDbEntity
  8
0
  6
CENTER
 62
     4
100
AcDbLine
 10
-652.2179549017405
 20
-1028.676992872943
 30
0.0
 11
-131.5599910556437
 21
-408.1809939465708
 31
0.0
  0
LINE
  5
22B
330
A3
100
AcDbEntity
  8
0
  6
CENTER
 62
     4
100
AcDbLine
 10
-131.5599910556437
 20
-408.1809939465708
 30
0.0
 11
-9.508785217497916
 21
-262.592604981652
 31
0.0
  0
LINE
  5
22C
330
A3
100
AcDbEntity
  8
0
  6
CENTER
 62
     4
100
AcDbLine
 10
-107.8126133115238
 20
-428.1074098530892
 30
0.0
 11
47.92822921221818
 21
-327.7011061759929
 31
0.0
  0
CIRCLE
  5
22D
330
A3
100
AcDbEntity
  8
0
  6
CENTER
 62
     4
100
AcDbCircle
 10
24.13772227726622
 20
-290.7995028062286
 30
0.0
 40
43.90576899999995
  0
ENDBLK
  5
A5
330
A3
100
AcDbEntity
  8
0
100
AcDbBlockEnd
  0
BLOCK
  5
A7
330
A6
100
AcDbEntity
  8
0
100
AcDbBlockBegin
  2
GROUP_30
 70
     0
 71
     0
 10
0.0
 20
0.0
 30
0.0
  3
GROUP_30
  1

  0
LINE
  5
22E
330
A6
100
AcDbEntity
  8
0
 62
    32
100
AcDbLine
 10
-502.5729091868477
 20
-867.2573274696117
 30
0.0
 11
-302.5729091868477
 21
-867.2573274696117
 31
0.0
  0
LINE
  5
22F
330
A6
100
AcDbEntity
  8
0
 62
    32
100
AcDbLine
 10
-502.5729091868477
 20
-867.2573274696117
 30
0.0
 11
-502.5729091868477
 21
-911.2573274696117
 31
0.0
  0
LINE
  5
230
330
A6
100
AcDbEntity
  8
0
 62
    32
100
AcDbLine
 10
-502.5729091868477
 20
-911.2573274696117
 30
0.0
 11
-302.5729091868477
 21
-911.2573274696117
 31
0.0
  0
LINE
  5
231
330
A6
100
AcDbEntity
  8
0
 62
    32
100
AcDbLine
 10
-302.5729091868477
 20
-589.2573274696115
 30
0.0
 11
-302.5729091868477
 21
-1001.257327469612
 31
0.0
  0
LINE
  5
232
330
A6
100
AcDbEntity
  8
0
 62
    32
100
AcDbLine
 10
-245.0729091868477
 20
-1001.257327469612
 30
0.0
 11
-310.0729091868477
 21
-1001.257327469612
 31
0.0
  0
LINE
  5
233
330
A6
100
AcDbEntity
  8
0
 62
    32
100
AcDbLine
 10
-310.0729091868477
 20
-1001.257327469612
 30
0.0
 11
-310.0729091868477
 21
-1017.257327469612
 31
0.0
  0
LINE
  5
234
330
A6
100
AcDbEntity
  8
0
 62
    32
100
AcDbLine
 10
-310.0729091868477
 20
-1017.257327469612
 30
0.0
 11
-245.0729091868477
 21
-1017.257327469612
 31
0.0
  0
LINE
  5
235
330
A6
100
AcDbEntity
  8
0
 62
    32
100
AcDbLine
 10
-245.0729091868477
 20
-1017.257327469612
 30
0.0
 11
-245.0729091868477
 21
-1001.257327469612
 31
0.0
  0
LINE
  5
236
330
A6
100
AcDbEntity
  8
0
 62
    32
100
AcDbLine
 10
-252.5729091868477
 20
-1001.257327469612
 30
0.0
 11
-252.5729091868477
 21
-589.2573274696115
 31
0.0
  0
LINE
  5
237
330
A6
100
AcDbEntity
  8
0
 62
    32
100
AcDbLine
 10
-252.5729091868477
 20
-589.2573274696115
 30
0.0
 11
-302.5729091868477
 21
-589.2573274696115
 31
0.0
  0
LINE
  5
238
330
A6
100
AcDbEntity
  8
0
  6
CENTER
 62
     9
100
AcDbLine
 10
-277.5729091868477
 20
-559.2573274696115
 30
0.0
 11
-277.5729091868477
 21
-1252.581733869505
 31
0.0
  0
LINE
  5
239
330
A6
100
AcDbEntity
  8
0
  6
CENTER
 62
     9
100
AcDbLine
 10
-332.5729091868477
 20
-689.2573274696117
 30
0.0
 11
-222.5729091868477
 21
-689.2573274696117
 31
0.0
  0
ENDBLK
  5
A8
330
A6
100
AcDbEntity
  8
0
100
AcDbBlockEnd
  0
BLOCK
  5
AA
330
A9
100
AcDbEntity
  8
0
100
AcDbBlockBegin
  2
GROUP_31
 70
     0
 71
     0
 10
0.0
 20
0.0
 30
0.0
  3
GROUP_31
  1

  0
LINE
  5
23A
330
A9
100
AcDbEntity
  8
0
  6
CENTER
 62
     9
100
AcDbLine
 10
-55.3218901721898
 20
-299.8006011767291
 30
0.0
 11
-265.2713572324365
 21
-299.8006011767291
 31
0.0
  0
LINE
  5
23B
330
A9
100
AcDbEntity
  8
0
  6
CENTER
 62
     9
100
AcDbLine
 10
-54.8622601095617
 20
-253.7995191736448
 30
0.0
 11
-54.8622601095617
 21
-233.7995045109026
 31
0.0
  0
LINE
  5
23C
330
A9
100
AcDbEntity
  8
0
  6
CENTER
 62
     9
100
AcDbLine
 10
-64.86224455274987
 20
-243.7995347304565
 30
0.0
 11
-44.86227566637353
 21
-243.7995347304565
 31
0.0
  0
LINE
  5
23D
330
A9
100
AcDbEntity
  8
0
  6
CENTER
 62
     9
100
AcDbLine
 10
71.1377361353459
 20
-253.7995191736448
 30
0.0
 11
71.1377361353459
 21
-233.7995045109026
 31
0.0
  0
LINE
  5
23E
330
A9
100
AcDbEntity
  8
0
  6
CENTER
 62
     9
100
AcDbLine
 10
61.13775169215774
 20
-369.799530975364
 30
0.0
 11
81.13772057853407
 21
-369.799530975364
 31
0.0
  0
LINE
  5
23F
330
A9
100
AcDbEntity
  8
0
  6
CENTER
 62
     9
100
AcDbLine
 10
71.1377361353459
 20
-379.7995383067351
 30
0.0
 11
71.1377361353459
 21
-359.7995236439929
 31
0.0
  0
LINE
  5
240
330
A9
100
AcDbEntity
  8
0
  6
CENTER
 62
     9
100
AcDbLine
 10
-54.8622601095617
 20
-379.7995383067351
 30
0.0
 11
-54.8622601095617
 21
-359.7995236439929
 31
0.0
  0
LINE
  5
241
330
A9
100
AcDbEntity
  8
0
  6
CENTER
 62
     9
100
AcDbLine
 10
-38.49283035343979
 20
-290.7995028121703
 30
0.0
 11
99.13772048912711
 21
-290.7995028121702
 31
0.0
  0
LINE
  5
242
330
A9
100
AcDbEntity
  8
0
  6
CENTER
 62
     9
100
AcDbLine
 10
61.13775169215774
 20
-243.7995347304565
 30
0.0
 11
81.13772057853407
 21
-243.7995347304565
 31
0.0
  0
LINE
  5
243
330
A9
100
AcDbEntity
  8
0
  6
CENTER
 62
     9
100
AcDbLine
 10
71.1377361353459
 20
-253.7995191736448
 30
0.0
 11
71.1377361353459
 21
-233.7995045109026
 31
0.0
  0
LINE
  5
244
330
A9
100
AcDbEntity
  8
0
  6
CENTER
 62
     9
100
AcDbLine
 10
-64.86229032911569
 20
-369.7995538635469
 30
0.0
 11
-44.86227566637353
 21
-369.7995538635469
 31
0.0
  0
LINE
  5
245
330
A9
100
AcDbEntity
  8
0
  6
CENTER
 62
     9
100
AcDbLine
 10
24.13772227726622
 20
-215.7995046003095
 30
0.0
 11
24.13772227726622
 21
-397.7995382173281
 31
0.0
  0
LINE
  5
246
330
A9
100
AcDbEntity
  8
0
  6
CENTER
 62
     9
100
AcDbLine
 10
61.13770591579191
 20
-243.7995347304565
 30
0.0
 11
81.13772057853407
 21
-243.7995347304565
 31
0.0
  0
LINE
  5
247
330
A9
100
AcDbEntity
  8
0
  6
CENTER
 62
     9
100
AcDbLine
 10
-243.7441774968058
 20
-381.7991769840662
 30
0.0
 11
-267.5566774968058
 21
-381.7991769840662
 31
0.0
  0
LINE
  5
248
330
A9
100
AcDbEntity
  8
0
  6
CENTER
 62
     9
100
AcDbLine
 10
-217.8623658780009
 20
-351.7993177397538
 30
0.0
 11
-217.8623658780011
 21
-407.0272016360983
 31
0.0
  0
LINE
  5
249
330
A9
100
AcDbEntity
  8
0
  6
CENTER
 62
     9
100
AcDbLine
 10
-250.185259752983
 20
-404.5782909678817
 30
0.0
 11
-254.8037413853714
 21
-392.8535240805484
 31
0.0
  0
LINE
  5
24A
330
A9
100
AcDbEntity
  8
0
 62
     7
100
AcDbLine
 10
-67.8622444633429
 20
-243.7995347304565
 30
0.0
 11
-67.8622444633429
 21
-369.8113641659293
 31
0.0
  0
LINE
  5
24B
330
A9
100
AcDbEntity
  8
0
 62
     7
100
AcDbLine
 10
-54.8622601095617
 20
-382.7995382173282
 30
0.0
 11
71.1377361353459
 21
-382.7995382173282
 31
0.0
  0
LINE
  5
24C
330
A9
100
AcDbEntity
  8
0
 62
     7
100
AcDbLine
 10
-54.8622601095617
 20
-230.7995046003095
 30
0.0
 11
71.1377361353459
 21
-230.7995046003095
 31
0.0
  0
LINE
  5
24D
330
A9
100
AcDbEntity
  8
0
 62
     7
100
AcDbLine
 10
84.13772048912711
 20
-243.7995347304565
 30
0.0
 11
84.13772048912711
 21
-369.7995538635469
 31
0.0
  0
LINE
  5
24E
330
A9
100
AcDbEntity
  8
0
 62
     7
100
AcDbLine
 10
-77.8622611841422
 20
-344.7995740931548
 30
0.0
 11
-106.8624129077482
 21
-344.7995468619031
 31
0.0
  0
LINE
  5
24F
330
A9
100
AcDbEntity
  8
0
 62
     7
100
AcDbLine
 10
-77.85361649333208
 20
-254.7995081188928
 30
0.0
 11
-106.8623283973468
 21
-254.799480879603
 31
0.0
  0
ARC
  5
250
330
A9
100
AcDbEntity
  8
0
 62
     7
100
AcDbCircle
 10
-77.8622746828969
 20
-244.7994736654998
 30
0.0
 40
9.999999463558213
100
AcDbArc
 50
269.999944675244
 51
0.0000086514215241
  0
ARC
  5
251
330
A9
100
AcDbEntity
  8
0
 62
     7
100
AcDbCircle
 10
-77.8622746828969
 20
-354.7995314223988
 30
0.0
 40
9.999999463558213
100
AcDbArc
 50
0.0000086514211983
 51
89.9999496842005
  0
CIRCLE
  5
252
330
A9
100
AcDbEntity
  8
0
 62
     7
100
AcDbCircle
 10
24.13772227726622
 20
-290.7995028121703
 30
0.0
 40
42.49996821582412
  0
ARC
  5
253
330
A9
100
AcDbEntity
  8
0
 62
     7
100
AcDbCircle
 10
-77.8622746828969
 20
-244.7995194418657
 30
0.0
 40
9.999999463558213
100
AcDbArc
 50
269.999944675244
 51
0.0000086514215241
  0
ARC
  5
254
330
A9
100
AcDbEntity
  8
0
 62
     7
100
AcDbCircle
 10
-77.8622746828969
 20
-354.7995543105817
 30
0.0
 40
9.999999463558213
100
AcDbArc
 50
359.9999949910431
 51
89.99994968420049
  0
ARC
  5
255
330
A9
100
AcDbEntity
  8
0
 62
     7
100
AcDbCircle
 10
-54.8622601095617
 20
-243.7995347304565
 30
0.0
 40
13.00000008940696
100
AcDbArc
 50
90.00000432571393
 51
180.0000050089569
  0
ARC
  5
256
330
A9
100
AcDbEntity
  8
0
 62
     7
100
AcDbCircle
 10
-54.8622601095617
 20
-369.7995538635469
 30
0.0
 40
13.00000008940696
100
AcDbArc
 50
179.9999949910431
 51
269.999995674286
  0
ARC
  5
257
330
A9
100
AcDbEntity
  8
0
 62
     7
100
AcDbCircle
 10
71.1377361353459
 20
-243.7995347304565
 30
0.0
 40
13.00000008940696
100
AcDbArc
 50
359.9999949910431
 51
90.00000432571397
  0
ARC
  5
258
330
A9
100
AcDbEntity
  8
0
 62
     7
100
AcDbCircle
 10
71.1377361353459
 20
-369.7995538635469
 30
0.0
 40
13.00000008940696
100
AcDbArc
 50
269.999999316757
 51
0.0000086514213535
  0
ARC
  5
259
330
A9
100
AcDbEntity
  8
0
 62
     7
100
AcDbCircle
 10
-54.8622601095617
 20
-243.7995347304565
 30
0.0
 40
13.00000008940696
100
AcDbArc
 50
90.00001115590307
 51
180.0000043257107
  0
POINT
  5
25A
330
A9
100
AcDbEntity
  8
0
  6
CONTINUOUS
 62
     7
100
AcDbPoint
 10
-143.8623642686755
 20
-299.8006011767291
 30
0.0
  0
LINE
  5
25B
330
A9
100
AcDbEntity
  8
0
 62
     7
100
AcDbLine
 10
-128.8623647157103
 20
-256.8006177170176
 30
0.0
 11
-128.8623647157103
 21
-342.8006304128064
 31
0.0
  0
LINE
  5
25C
330
A9
100
AcDbEntity
  8
0
 62
     7
100
AcDbLine
 10
-138.8623720470814
 20
-248.779499792003
 30
0.0
 11
-138.8623720470814
 21
-350.6339507970311
 31
0.0
  0
LINE
  5
25D
330
A9
100
AcDbEntity
  8
0
 62
     7
100
AcDbLine
 10
-143.8623642686755
 20
-247.8006179852384
 30
0.0
 11
-143.8623642686755
 21
-351.8006301445855
 31
0.0
  0
LINE
  5
25E
330
A9
100
AcDbEntity
  8
0
 62
     7
100
AcDbLine
 10
-106.8623577419671
 20
-344.8006227238076
 30
0.0
 11
-109.8623805407431
 21
-344.8006227238076
 31
0.0
  0
LINE
  5
25F
330
A9
100
AcDbEntity
  8
0
 62
     7
100
AcDbLine
 10
-106.8623577419671
 20
-254.8006025178336
 30
0.0
 11
-109.8623805407431
 21
-254.8006025178336
 31
0.0
  0
LINE
  5
260
330
A9
100
AcDbEntity
  8
0
 62
     7
100
AcDbLine
 10
-113.3264841362352
 20
-342.8006304128064
 30
0.0
 11
-128.0949010545005
 21
-342.8006304128064
 31
0.0
  0
LINE
  5
261
330
A9
100
AcDbEntity
  8
0
 62
     7
100
AcDbLine
 10
-113.3264841362352
 20
-256.8006177170176
 30
0.0
 11
-128.0949010545005
 21
-256.8006177170176
 31
0.0
  0
LINE
  5
262
330
A9
100
AcDbEntity
  8
0
 62
     7
100
AcDbLine
 10
-139.6298585964742
 20
-247.8006179852384
 30
0.0
 11
-143.8623642686755
 21
-247.8006179852384
 31
0.0
  0
LINE
  5
263
330
A9
100
AcDbEntity
  8
0
 62
     7
100
AcDbLine
 10
-139.6298585964742
 20
-351.8006301445855
 30
0.0
 11
-143.8623642686755
 21
-351.8006301445855
 31
0.0
  0
LINE
  5
264
330
A9
100
AcDbEntity
  8
0
 62
     7
100
AcDbLine
 10
-129.432795302813
 20
-343.3140083539727
 30
0.0
 11
-138.2918956387698
 21
-351.2871990825797
 31
0.0
  0
LINE
  5
265
330
A9
100
AcDbEntity
  8
0
 62
     7
100
AcDbLine
 10
-129.4328492648785
 20
-256.28724509648
 30
0.0
 11
-138.2919325881833
 21
-248.3140696792607
 31
0.0
  0
ARC
  5
266
330
A9
100
AcDbEntity
  8
0
 62
     7
100
AcDbCircle
 10
-109.8623805407431
 20
-342.8006304128064
 30
0.0
 40
2.0
100
AcDbArc
 50
209.9998904354362
 51
270.0000025044818
  0
ARC
  5
267
330
A9
100
AcDbEntity
  8
0
 62
     7
100
AcDbCircle
 10
-113.3264841362352
 20
-344.8006227238076
 30
0.0
 40
2.0
100
AcDbArc
 50
30.00000265605915
 51
89.99999749552154
  0
ARC
  5
268
330
A9
100
AcDbEntity
  8
0
 62
     7
100
AcDbCircle
 10
-109.8623805407431
 20
-256.8006177170176
 30
0.0
 40
2.0
100
AcDbArc
 50
89.99999749551829
 51
149.9998256392886
  0
ARC
  5
269
330
A9
100
AcDbEntity
  8
0
 62
     7
100
AcDbCircle
 10
-113.3264841362352
 20
-254.8006025178336
 30
0.0
 40
2.0
100
AcDbArc
 50
270.0000025044785
 51
329.9999973439408
  0
ARC
  5
26A
330
A9
100
AcDbEntity
  8
0
 62
     7
100
AcDbCircle
 10
-128.0949010545005
 20
-254.8006025178336
 30
0.0
 40
2.0
100
AcDbArc
 50
228.0127874498491
 51
270.0000025044785
  0
ARC
  5
26B
330
A9
100
AcDbEntity
  8
0
 62
     7
100
AcDbCircle
 10
-128.0949010545005
 20
-344.8006227238076
 30
0.0
 40
2.0
100
AcDbArc
 50
89.99999749552154
 51
131.9872125501509
  0
ARC
  5
26C
330
A9
100
AcDbEntity
  8
0
 62
     7
100
AcDbCircle
 10
-139.6298585964742
 20
-249.8005874080566
 30
0.0
 40
2.0
100
AcDbArc
 50
48.01278244089053
 51
89.99999749551829
  0
ARC
  5
26D
330
A9
100
AcDbEntity
  8
0
 62
     7
100
AcDbCircle
 10
-139.6298585964742
 20
-349.8006149454017
 30
0.0
 40
2.0
100
AcDbArc
 50
270.0000025044818
 51
311.9872175591095
  0
POINT
  5
26E
330
A9
100
AcDbEntity
  8
0
  6
CONTINUOUS
 62
     7
100
AcDbPoint
 10
-252.8630896273784
 20
-299.8006011767291
 30
0.0
  0
LINE
  5
26F
330
A9
100
AcDbEntity
  8
0
 62
     7
100
AcDbLine
 10
-241.8623651627451
 20
-356.7993177397536
 30
0.0
 11
-241.8623651627451
 21
-240.3006182087558
 31
0.0
  0
LINE
  5
270
330
A9
100
AcDbEntity
  8
0
 62
     7
100
AcDbLine
 10
-252.8630896273784
 20
-344.8005998356247
 30
0.0
 11
-252.8630896273784
 21
-254.8006940705652
 31
0.0
  0
LINE
  5
271
330
A9
100
AcDbEntity
  8
0
 62
     7
100
AcDbLine
 10
-248.8628417912728
 20
-344.8005998356247
 30
0.0
 11
-252.8628378573664
 21
-344.8005998356247
 31
0.0
  0
LINE
  5
272
330
A9
100
AcDbEntity
  8
0
 62
     7
100
AcDbLine
 10
-248.8630821171934
 20
-352.550607234051
 30
0.0
 11
-248.8630821171934
 21
-247.0506180075902
 31
0.0
  0
LINE
  5
273
330
A9
100
AcDbEntity
  8
0
 62
     7
100
AcDbLine
 10
-252.8630896273784
 20
-254.8006940705652
 30
0.0
 11
-248.8630821171934
 21
-254.8006940705652
 31
0.0
  0
LINE
  5
274
330
A9
100
AcDbEntity
  8
0
 62
     7
100
AcDbLine
 10
-241.8623537186538
 20
-247.0506180075902
 30
0.0
 11
-248.8630821171934
 21
-247.0506180075902
 31
0.0
  0
LINE
  5
275
330
A9
100
AcDbEntity
  8
0
 62
     7
100
AcDbLine
 10
-248.8625900212608
 20
-352.550607234051
 30
0.0
 11
-241.8618845109041
 21
-352.550607234051
 31
0.0
  0
LINE
  5
276
330
A9
100
AcDbEntity
  8
0
 62
     7
100
AcDbLine
 10
-241.8623537186538
 20
-240.3006182087558
 30
0.0
 11
-143.8623413804926
 21
-240.3006182087558
 31
0.0
  0
LINE
  5
277
330
A9
100
AcDbEntity
  8
0
 62
     7
100
AcDbLine
 10
-143.8623642686755
 20
-356.7993177397536
 30
0.0
 11
-143.8623642686755
 21
-240.3006182087558
 31
0.0
  0
LINE
  5
278
330
A9
100
AcDbEntity
  8
0
 62
     7
100
AcDbLine
 10
-241.8623651627451
 20
-356.7993177397536
 30
0.0
 11
-143.8623642686755
 21
-356.7993177397536
 31
0.0
  0
CIRCLE
  5
279
330
A9
100
AcDbEntity
  8
0
 62
     7
100
AcDbCircle
 10
24.13772227726622
 20
-290.7995028121703
 30
0.0
 40
22.49999827891596
  0
POINT
  5
27A
330
A9
100
AcDbEntity
  8
0
  6
CONTINUOUS
 62
     2
100
AcDbPoint
 10
-255.3623263005167
 20
-381.7992380192225
 30
0.0
  0
LINE
  5
27B
330
A9
100
AcDbEntity
  8
0
 62
     2
100
AcDbLine
 10
-176.7898012761027
 20
-359.7993124058191
 30
0.0
 11
-250.3623415593058
 21
-359.7993124058191
 31
0.0
  0
LINE
  5
27C
330
A9
100
AcDbEntity
  8
0
 62
     2
100
AcDbLine
 10
-255.3623415593058
 20
-399.4804971744959
 30
0.0
 11
-255.3623415593058
 21
-364.7993066837732
 31
0.0
  0
LINE
  5
27D
330
A9
100
AcDbEntity
  8
0
 62
     2
100
AcDbLine
 10
-170.865558433562
 20
-366.1965118953719
 30
0.0
 11
-172.1377878883088
 21
-362.966769243734
 31
0.0
  0
LINE
  5
27E
330
A9
100
AcDbEntity
  8
0
 62
     2
100
AcDbLine
 10
-259.4280659357057
 20
-404.3063649664853
 30
0.0
 11
-164.5258115556703
 21
-366.9235902863354
 31
0.0
  0
LINE
  5
27F
330
A9
100
AcDbEntity
  8
0
 62
     2
100
AcDbLine
 10
-168.2474073988215
 20
-385.1066132457588
 30
0.0
 11
-168.2473742842267
 21
-368.3896809490386
 31
0.0
  0
LINE
  5
280
330
A9
100
AcDbEntity
  8
0
 62
     2
100
AcDbLine
 10
-164.525797358614
 20
-366.9235846939989
 30
0.0
 11
-165.6353840769828
 21
-364.1067183189286
 31
0.0
  0
LINE
  5
281
330
A9
100
AcDbEntity
  8
0
 62
     2
100
AcDbLine
 10
-260.5275640785855
 20
-401.5151100813471
 30
0.0
 11
-165.6253096985502
 21
-364.1323354011981
 31
0.0
  0
LINE
  5
282
330
A9
100
AcDbEntity
  8
0
 62
     2
100
AcDbLine
 10
-240.8622500065714
 20
-356.7993177397536
 30
0.0
 11
-240.8622500065714
 21
-359.7993114521448
 31
0.0
  0
LINE
  5
283
330
A9
100
AcDbEntity
  8
0
 62
     2
100
AcDbLine
 10
-194.8624817494303
 20
-356.7993177397536
 30
0.0
 11
-194.8624817494303
 21
-359.7993114521448
 31
0.0
  0
ARC
  5
284
330
A9
100
AcDbEntity
  8
0
 62
     2
100
AcDbCircle
 10
-250.3622652653605
 20
-364.7993124058191
 30
0.0
 40
5.0
100
AcDbArc
 50
90.00009061369796
 51
179.9998540615587
  0
ARC
  5
285
330
A9
100
AcDbEntity
  8
0
 62
     2
100
AcDbCircle
 10
-176.7898012761027
 20
-364.7993009617273
 30
0.0
 40
5.0
100
AcDbArc
 50
21.49994220024395
 51
89.99985474478871
  0
ARC
  5
286
330
A9
100
AcDbEntity
  8
0
 62
     2
100
AcDbCircle
 10
-183.2473665837199
 20
-385.1066568424646
 30
0.0
 40
15.0
100
AcDbArc
 50
273.1387336052466
 51
359.9997634478477
  0
LINE
  5
287
330
A9
100
AcDbEntity
  8
0
 62
     2
100
AcDbLine
 10
-259.4280517386491
 20
-404.3063593741479
 30
0.0
 11
-260.527549881529
 21
-401.5151044890106
 31
0.0
  0
LINE
  5
288
330
A9
100
AcDbEntity
  8
0
 62
     2
100
AcDbLine
 10
-182.4261764399607
 20
-400.0840921113538
 30
0.0
 11
-253.0577557611536
 21
-403.9571071477683
 31
0.0
  0
ARC
  5
289
330
A9
100
AcDbEntity
  8
0
 62
     2
100
AcDbCircle
 10
-253.2220675114542
 20
-400.9616525700037
 30
0.0
 40
3.0
100
AcDbArc
 50
236.0772746757873
 51
273.1386789637353
  0
ARC
  5
28A
330
A9
100
AcDbEntity
  8
0
 62
     2
100
AcDbCircle
 10
-256.0124117497355
 20
-405.1105936100428
 30
0.0
 40
2.0
100
AcDbArc
 50
56.07725577903656
 51
111.4992138744742
  0
ENDBLK
  5
AB
330
A9
100
AcDbEntity
  8
0
100
AcDbBlockEnd
  0
BLOCK
  5
AD
330
AC
100
AcDbEntity
  8
0
100
AcDbBlockBegin
  2
GROUP_32
 70
     0
 71
     0
 10
0.0
 20
0.0
 30
0.0
  3
GROUP_32
  1

  0
LINE
  5
28C
330
AC
100
AcDbEntity
  8
0
 62
     7
100
AcDbLine
 10
28.13770683966391
 20
-278.9567756804486
 30
0.0
 11
28.13770683966391
 21
-274.9995157255159
 31
0.0
  0
LINE
  5
28D
330
AC
100
AcDbEntity
  8
0
 62
     7
100
AcDbLine
 10
20.13773771486854
 20
-278.9567756804486
 30
0.0
 11
20.13773771486854
 21
-274.9995157255159
 31
0.0
  0
LINE
  5
28E
330
AC
100
AcDbEntity
  8
0
 62
     7
100
AcDbLine
 10
28.13770683966391
 20
-274.9995157255159
 30
0.0
 11
20.13773771486854
 21
-274.9995157255159
 31
0.0
  0
ARC
  5
28F
330
AC
100
AcDbEntity
  8
0
 62
     7
100
AcDbCircle
 10
24.13772227726622
 20
-290.7995028121703
 30
0.0
 40
12.49999932199719
100
AcDbArc
 50
108.6629261393462
 51
71.33707249416312
  0
ENDBLK
  5
AE
330
AC
100
AcDbEntity
  8
0
100
AcDbBlockEnd
  0
BLOCK
  5
B0
330
AF
100
AcDbEntity
  8
0
100
AcDbBlockBegin
  2
GROUP_33
 70
     0
 71
     0
 10
0.0
 20
0.0
 30
0.0
  3
GROUP_33
  1

  0
LINE
  5
290
330
AF
100
AcDbEntity
  8
0
 62
     7
100
AcDbLine
 10
-303.4978661868476
 20
-1112.581733865995
 30
0.0
 11
-286.076025410356
 21
-1168.030803971894
 31
0.0
  0
LINE
  5
291
330
AF
100
AcDbEntity
  8
0
 62
     7
100
AcDbLine
 10
-269.0697941868477
 20
-1168.030807865995
 30
0.0
 11
-251.6479521868475
 21
-1112.581733865995
 31
0.0
  0
ARC
  5
292
330
AF
100
AcDbEntity
  8
0
 62
     7
100
AcDbCircle
 10
-277.5729091868477
 20
-1165.081733865995
 30
0.0
 40
9.000000120038962
100
AcDbArc
 50
199.1277110605103
 51
340.8722889394898
  0
LINE
  5
293
330
AF
100
AcDbEntity
  8
0
 62
     7
100
AcDbLine
 10
-322.5729091868475
 20
-1112.581733865995
 30
0.0
 11
-232.5729091868475
 21
-1112.581733865995
 31
0.0
  0
LINE
  5
294
330
AF
100
AcDbEntity
  8
0
 62
     7
100
AcDbLine
 10
-292.5729091868475
 20
-856.5817338659947
 30
0.0
 11
-262.5729091868475
 21
-856.5817338659947
 31
0.0
  0
LINE
  5
295
330
AF
100
AcDbEntity
  8
0
 62
     7
100
AcDbLine
 10
-232.5729091868475
 20
-1106.581733865995
 30
0.0
 11
-232.5729091868475
 21
-1112.581733865995
 31
0.0
  0
LINE
  5
296
330
AF
100
AcDbEntity
  8
0
 62
     7
100
AcDbLine
 10
-322.5729091868475
 20
-1106.581733865995
 30
0.0
 11
-322.5729091868475
 21
-1112.581733865995
 31
0.0
  0
LINE
  5
297
330
AF
100
AcDbEntity
  8
0
 62
     7
100
AcDbLine
 10
-292.5729091868475
 20
-856.5817338659947
 30
0.0
 11
-292.5729091868475
 21
-1106.581733865995
 31
0.0
  0
LINE
  5
298
330
AF
100
AcDbEntity
  8
0
 62
     7
100
AcDbLine
 10
-262.5729091868475
 20
-856.5817338659947
 30
0.0
 11
-262.5729091868475
 21
-1106.581733865995
 31
0.0
  0
LINE
  5
299
330
AF
100
AcDbEntity
  8
0
 62
     7
100
AcDbLine
 10
-232.5729091868475
 20
-1106.581733865995
 30
0.0
 11
-322.5729091868475
 21
-1106.581733865995
 31
0.0
  0
CIRCLE
  5
29A
330
AF
100
AcDbEntity
  8
0
 62
     7
100
AcDbCircle
 10
-277.5729091868477
 20
-1165.081733865995
 30
0.0
 40
6.0
  0
ARC
  5
29B
330
AF
100
AcDbEntity
  8
0
 62
     7
100
AcDbCircle
 10
-277.5729091868477
 20
-1165.081733865995
 30
0.0
 40
37.5
100
AcDbArc
 50
121.322890868472
 51
58.67710913152791
  0
LINE
  5
29C
330
AF
100
AcDbEntity
  8
0
  6
CENTER
 62
     9
100
AcDbLine
 10
-322.5729091868475
 20
-1165.081733865995
 30
0.0
 11
-232.5729091868475
 21
-1165.081733865995
 31
0.0
  0
ENDBLK
  5
B1
330
AF
100
AcDbEntity
  8
0
100
AcDbBlockEnd
  0
BLOCK
  5
B3
330
B2
100
AcDbEntity
  8
0
100
AcDbBlockBegin
  2
GROUP_34
 70
     0
 71
     0
 10
0.0
 20
0.0
 30
0.0
  3
GROUP_34
  1

  0
LINE
  5
29D
330
B2
100
AcDbEntity
  8
0
  6
CENTER
 62
     9
100
AcDbLine
 10
-1388.519848098546
 20
-247.5889299422832
 30
0.0
 11
-1388.519848098546
 21
-654.5889299422836
 31
0.0
  0
LINE
  5
29E
330
B2
100
AcDbEntity
  8
0
  6
CENTER
 62
     9
100
AcDbLine
 10
-1559.425515800408
 20
-523.5889299422836
 30
0.0
 11
-1217.133784433949
 21
-523.5889299422836
 31
0.0
  0
ENDBLK
  5
B4
330
B2
100
AcDbEntity
  8
0
100
AcDbBlockEnd
  0
BLOCK
  5
B6
330
B5
100
AcDbEntity
  8
0
100
AcDbBlockBegin
  2
GROUP_35
 70
     0
 71
     0
 10
0.0
 20
0.0
 30
0.0
  3
GROUP_35
  1

  0
LINE
  5
2A1
330
B5
100
AcDbEntity
  8
0
 62
     2
100
AcDbLine
 10
-1532.319848098545
 20
-442.5889299422832
 30
0.0
 11
-1244.719848098546
 21
-442.5889299422832
 31
0.0
  0
LINE
  5
2A2
330
B5
100
AcDbEntity
  8
0
 62
     2
100
AcDbLine
 10
-1535.519848098546
 20
-445.7889299422833
 30
0.0
 11
-1535.519848098546
 21
-601.3889299422838
 31
0.0
  0
LINE
  5
2A3
330
B5
100
AcDbEntity
  8
0
 62
     2
100
AcDbLine
 10
-1532.319848098545
 20
-604.5889299422836
 30
0.0
 11
-1244.719848098546
 21
-604.5889299422836
 31
0.0
  0
ARC
  5
2A4
330
B5
100
AcDbEntity
  8
0
 62
     2
100
AcDbCircle
 10
-1532.319848098545
 20
-445.7889299422833
 30
0.0
 40
3.2
100
AcDbArc
 50
90.0
 51
180.0
  0
ARC
  5
2A5
330
B5
100
AcDbEntity
  8
0
 62
     2
100
AcDbCircle
 10
-1532.319848098545
 20
-601.3889299422838
 30
0.0
 40
3.2
100
AcDbArc
 50
180.0
 51
270.0
  0
LINE
  5
2A6
330
B5
100
AcDbEntity
  8
0
 62
     2
100
AcDbLine
 10
-1241.519848098546
 20
-601.3889299422838
 30
0.0
 11
-1241.519848098546
 21
-445.7889299422833
 31
0.0
  0
ARC
  5
2A7
330
B5
100
AcDbEntity
  8
0
 62
     2
100
AcDbCircle
 10
-1244.719848098546
 20
-601.3889299422838
 30
0.0
 40
3.2
100
AcDbArc
 50
270.0
 51
360.0
  0
ARC
  5
2A8
330
B5
100
AcDbEntity
  8
0
 62
     2
100
AcDbCircle
 10
-1244.719848098546
 20
-445.7889299422833
 30
0.0
 40
3.2
100
AcDbArc
 50
0.0
 51
90.0
  0
ENDBLK
  5
B7
330
B5
100
AcDbEntity
  8
0
100
AcDbBlockEnd
  0
BLOCK
  5
B9
330
B8
100
AcDbEntity
  8
0
100
AcDbBlockBegin
  2
GROUP_36
 70
     0
 71
     0
 10
0.0
 20
0.0
 30
0.0
  3
GROUP_36
  1

  0
LINE
  5
2A9
330
B8
100
AcDbEntity
  8
0
 62
     7
100
AcDbLine
 10
-1641.019848098546
 20
-247.5889299422832
 30
0.0
 11
-1641.019848098546
 21
-297.5889299422832
 31
0.0
  0
LINE
  5
2AA
330
B8
100
AcDbEntity
  8
0
 62
     7
100
AcDbLine
 10
-1641.019848098546
 20
-297.5889299422832
 30
0.0
 11
-1483.519848098546
 21
-440.2889299422835
 31
0.0
  0
LINE
  5
2AB
330
B8
100
AcDbEntity
  8
0
 62
     7
100
AcDbLine
 10
-1535.519848098546
 20
-470.2889299422833
 30
0.0
 11
-1537.819848098546
 21
-470.2889299422833
 31
0.0
  0
LINE
  5
2AC
330
B8
100
AcDbEntity
  8
0
 62
     7
100
AcDbLine
 10
-1537.819848098546
 20
-470.2889299422833
 30
0.0
 11
-1537.819848098546
 21
-440.2889299422833
 31
0.0
  0
LINE
  5
2AD
330
B8
100
AcDbEntity
  8
0
 62
     7
100
AcDbLine
 10
-1537.819848098546
 20
-440.2889299422833
 30
0.0
 11
-1483.519848098546
 21
-440.2889299422833
 31
0.0
  0
LINE
  5
2AE
330
B8
100
AcDbEntity
  8
0
 62
     7
100
AcDbLine
 10
-1136.019848098546
 20
-257.5889299422832
 30
0.0
 11
-1136.019848098546
 21
-297.5889299422832
 31
0.0
  0
LINE
  5
2AF
330
B8
100
AcDbEntity
  8
0
 62
     7
100
AcDbLine
 10
-1293.519848098546
 20
-440.2889299422835
 30
0.0
 11
-1136.019848098546
 21
-297.5889299422832
 31
0.0
  0
LINE
  5
2B0
330
B8
100
AcDbEntity
  8
0
 62
     7
100
AcDbLine
 10
-1241.519848098546
 20
-470.2889299422833
 30
0.0
 11
-1239.219848098546
 21
-470.2889299422833
 31
0.0
  0
LINE
  5
2B1
330
B8
100
AcDbEntity
  8
0
 62
     7
100
AcDbLine
 10
-1239.219848098546
 20
-470.2889299422833
 30
0.0
 11
-1239.219848098546
 21
-440.2889299422833
 31
0.0
  0
LINE
  5
2B2
330
B8
100
AcDbEntity
  8
0
 62
     7
100
AcDbLine
 10
-1239.219848098546
 20
-440.2889299422833
 30
0.0
 11
-1293.519848098546
 21
-440.2889299422833
 31
0.0
  0
LINE
  5
2B3
330
B8
100
AcDbEntity
  8
0
 62
     7
100
AcDbLine
 10
-1641.019848098546
 20
-297.5889299422832
 30
0.0
 11
-1136.019848098546
 21
-297.5889299422832
 31
0.0
  0
ENDBLK
  5
BA
330
B8
100
AcDbEntity
  8
0
100
AcDbBlockEnd
  0
BLOCK
  5
BC
330
BB
100
AcDbEntity
  8
0
100
AcDbBlockBegin
  2
DA_IMAGEDIMGROUP_1
 70
     0
 71
     0
 10
0.0
 20
0.0
 30
0.0
  3
DA_IMAGEDIMGROUP_1
  1

  0
ARC
  5
2B4
330
BB
100
AcDbEntity
  8
LAYER0016
 62
     8
100
AcDbCircle
 10
-708.3032292683486
 20
-1202.581733865995
 30
0.0
 40
266.567189344898
100
AcDbArc
 50
0.0
 51
50.00000000000002
  0
INSERT
  5
2BB
330
BB
100
AcDbEntity
  8
LAYER0016
 62
     8
100
AcDbBlockReference
  2
_OPEN30
 10
-441.7360399234506
 20
-1202.581733865995
 30
0.0
 41
29.99997611445993
 42
30.00008592479957
 50
274.3525219213635
  0
INSERT
  5
2BC
330
BB
100
AcDbEntity
  8
LAYER0016
 62
     8
100
AcDbBlockReference
  2
_OPEN30
 10
-536.9571428084826
 20
-998.379419750491
 30
0.0
 41
29.99997611445993
 42
30.00008592479957
 50
135.6474780786364
  0
TEXT
  5
2BE
330
BB
100
AcDbEntity
  8
LAYER0016
 62
     7
100
AcDbText
 10
-456.1922827671941
 20
-1065.159666266476
 30
0.0
 40
45.0
  1
F
 50
294.9999999999999
 41
0.9882352941176509
  7
FDASTYLE0
 72
     5
 11
-440.9780253445289
 21
-1097.786746599796
 31
0.0
100
AcDbText
  0
ENDBLK
  5
BD
330
BB
100
AcDbEntity
  8
0
100
AcDbBlockEnd
  0
BLOCK
  5
BF
330
BE
100
AcDbEntity
  8
0
100
AcDbBlockBegin
  2
DA_IMAGEDIMGROUP_2
 70
     0
 71
     0
 10
0.0
 20
0.0
 30
0.0
  3
DA_IMAGEDIMGROUP_2
  1

  0
LINE
  5
2BF
330
BE
100
AcDbEntity
  8
LAYER0016
 62
     8
100
AcDbLine
 10
60.48298703937999
 20
631.3149791797856
 30
0.0
 11
587.5000000000003
 21
631.3149791797856
 31
0.0
  0
LINE
  5
2C0
330
BE
100
AcDbEntity
  8
LAYER0016
 62
     8
100
AcDbLine
 10
197.4557033387328
 20
1204.014945652174
 30
0.0
 11
587.5000000000003
 21
1204.014945652174
 31
0.0
  0
LINE
  5
2C1
330
BE
100
AcDbEntity
  8
LAYER0016
 62
     8
100
AcDbLine
 10
572.5000000000003
 20
631.3149791797856
 30
0.0
 11
572.5000000000003
 21
1204.014945652174
 31
0.0
  0
INSERT
  5
2C2
330
BE
100
AcDbEntity
  8
LAYER0016
 62
     8
100
AcDbBlockReference
  2
_OPEN30
 10
572.5000000000003
 20
631.3149791797856
 30
0.0
 41
29.99997611445993
 42
30.00008592479957
 50
270.0
  0
INSERT
  5
2C3
330
BE
100
AcDbEntity
  8
LAYER0016
 62
     8
100
AcDbBlockReference
  2
_OPEN30
 10
572.5000000000003
 20
1204.014945652174
 30
0.0
 41
29.99997611445993
 42
30.00008592479957
 50
90.0
  0
TEXT
  5
2C4
330
BE
100
AcDbEntity
  8
LAYER0016
 62
     7
100
AcDbText
 10
557.5000000000003
 20
899.6649624159797
 30
0.0
 40
45.0
  1
H
 50
90.0
 41
0.9333333333333334
  7
FDASTYLE0
 72
     5
 11
557.5000000000003
 21
935.6649624159797
 31
0.0
100
AcDbText
  0
ENDBLK
  5
C0
330
BE
100
AcDbEntity
  8
0
100
AcDbBlockEnd
  0
BLOCK
  5
C2
330
C1
100
AcDbEntity
  8
0
100
AcDbBlockBegin
  2
DA_IMAGEDIMGROUP_3
 70
     0
 71
     0
 10
0.0
 20
0.0
 30
0.0
  3
DA_IMAGEDIMGROUP_3
  1

  0
LINE
  5
2C5
330
C1
100
AcDbEntity
  8
LAYER0016
 62
     8
100
AcDbLine
 10
-862.5729092112732
 20
-1202.581733865995
 30
0.0
 11
437.5000000000001
 21
-1202.581733865995
 31
0.0
  0
LINE
  5
2C6
330
C1
100
AcDbEntity
  8
LAYER0016
 62
     8
100
AcDbLine
 10
287.5000000000002
 20
-494.6906221357191
 30
0.0
 11
437.5000000000002
 21
-494.6906221357191
 31
0.0
  0
LINE
  5
2C7
330
C1
100
AcDbEntity
  8
LAYER0016
 62
     8
100
AcDbLine
 10
187.5000000000025
 20
-84.69062213570405
 30
0.0
 11
437.5000000000002
 21
-84.69062213570405
 31
0.0
  0
LINE
  5
2C8
330
C1
100
AcDbEntity
  8
LAYER0016
 62
     8
100
AcDbLine
 10
422.5000000000002
 20
-1202.581733865995
 30
0.0
 11
422.5000000000002
 21
-494.6906221357191
 31
0.0
  0
INSERT
  5
2C9
330
C1
100
AcDbEntity
  8
LAYER0016
 62
     8
100
AcDbBlockReference
  2
_OPEN30
 10
422.5000000000002
 20
-1202.581733865995
 30
0.0
 41
29.99997611445993
 42
30.00008592479957
 50
270.0
  0
INSERT
  5
2CA
330
C1
100
AcDbEntity
  8
LAYER0016
 62
     8
100
AcDbBlockReference
  2
_OPEN30
 10
422.5000000000002
 20
-494.6906221357191
 30
0.0
 41
29.99997611445993
 42
30.00008592479957
 50
90.0
  0
LINE
  5
2CB
330
C1
100
AcDbEntity
  8
LAYER0016
 62
     8
100
AcDbLine
 10
422.5000000000002
 20
-494.6906221357191
 30
0.0
 11
422.5000000000002
 21
-84.69062213570408
 31
0.0
  0
INSERT
  5
2CC
330
C1
100
AcDbEntity
  8
LAYER0016
 62
     8
100
AcDbBlockReference
  2
_OPEN30
 10
422.5000000000002
 20
-494.6906221357191
 30
0.0
 41
29.99997611445993
 42
30.00008592479957
 50
270.0
  0
INSERT
  5
2CD
330
C1
100
AcDbEntity
  8
LAYER0016
 62
     8
100
AcDbBlockReference
  2
_OPEN30
 10
422.5000000000002
 20
-84.69062213570405
 30
0.0
 41
29.99997611445993
 42
30.00008592479957
 50
90.0
  0
TEXT
  5
2CE
330
C1
100
AcDbEntity
  8
LAYER0016
 62
     7
100
AcDbText
 10
407.5000000000002
 20
-866.6361780008569
 30
0.0
 40
45.0
  1
E
 50
90.0
 41
0.988235294117647
  7
FDASTYLE0
 72
     5
 11
407.5000000000002
 21
-830.6361780008569
 31
0.0
100
AcDbText
  0
TEXT
  5
2CF
330
C1
100
AcDbEntity
  8
LAYER0016
 62
     7
100
AcDbText
 10
407.5000000000002
 20
-343.6906221357116
 30
0.0
 40
45.0
  1
410
 50
90.0
 41
0.8842105263157896
  7
FDASTYLE0
 72
     5
 11
407.5000000000002
 21
-235.6906221357116
 31
0.0
100
AcDbText
  0
ENDBLK
  5
C3
330
C1
100
AcDbEntity
  8
0
100
AcDbBlockEnd
  0
BLOCK
  5
C5
330
C4
100
AcDbEntity
  8
0
100
AcDbBlockBegin
  2
DA_IMAGEDIMGROUP_4
 70
     0
 71
     0
 10
0.0
 20
0.0
 30
0.0
  3
DA_IMAGEDIMGROUP_4
  1

  0
LINE
  5
2D0
330
C4
100
AcDbEntity
  8
LAYER0016
 62
     8
100
AcDbLine
 10
-862.5729092112732
 20
-1202.581733865995
 30
0.0
 11
587.5000000000003
 21
-1202.581733865995
 31
0.0
  0
LINE
  5
2D1
330
C4
100
AcDbEntity
  8
LAYER0016
 62
     8
100
AcDbLine
 10
187.5000000000025
 20
-84.69062213570405
 30
0.0
 11
587.5000000000003
 21
-84.69062213570405
 31
0.0
  0
LINE
  5
2D2
330
C4
100
AcDbEntity
  8
LAYER0016
 62
     8
100
AcDbLine
 10
572.5000000000003
 20
-1202.581733865995
 30
0.0
 11
572.5000000000003
 21
-84.69062213570396
 31
0.0
  0
INSERT
  5
2D3
330
C4
100
AcDbEntity
  8
LAYER0016
 62
     8
100
AcDbBlockReference
  2
_OPEN30
 10
572.5000000000003
 20
-1202.581733865995
 30
0.0
 41
29.99997611445993
 42
30.00008592479957
 50
270.0
  0
INSERT
  5
2D4
330
C4
100
AcDbEntity
  8
LAYER0016
 62
     8
100
AcDbBlockReference
  2
_OPEN30
 10
572.5000000000003
 20
-84.69062213570405
 30
0.0
 41
29.99997611445993
 42
30.00008592479957
 50
90.0
  0
TEXT
  5
2D5
330
C4
100
AcDbEntity
  8
LAYER0016
 62
     7
100
AcDbText
 10
557.5000000000003
 20
-661.6361780008493
 30
0.0
 40
45.0
  1
D
 50
90.0
 41
0.9333333333333334
  7
FDASTYLE0
 72
     5
 11
557.5000000000003
 21
-625.6361780008493
 31
0.0
100
AcDbText
  0
ENDBLK
  5
C6
330
C4
100
AcDbEntity
  8
0
100
AcDbBlockEnd
  0
BLOCK
  5
C8
330
C7
100
AcDbEntity
  8
0
100
AcDbBlockBegin
  2
DA_IMAGEDIMGROUP_5
 70
     0
 71
     0
 10
0.0
 20
0.0
 30
0.0
  3
DA_IMAGEDIMGROUP_5
  1

  0
LINE
  5
2D6
330
C7
100
AcDbEntity
  8
LAYER0016
 62
     8
100
AcDbLine
 10
-1532.319848098545
 20
-619.5889299422838
 30
0.0
 11
-1532.319848098545
 21
-769.5889299422836
 31
0.0
  0
LINE
  5
2D7
330
C7
100
AcDbEntity
  8
LAYER0016
 62
     8
100
AcDbLine
 10
-1241.519848098546
 20
-616.3889299422838
 30
0.0
 11
-1241.519848098546
 21
-769.5889299422836
 31
0.0
  0
LINE
  5
2D8
330
C7
100
AcDbEntity
  8
LAYER0016
 62
     8
100
AcDbLine
 10
-1532.319848098545
 20
-754.5889299422836
 30
0.0
 11
-1241.519848098546
 21
-754.5889299422836
 31
0.0
  0
INSERT
  5
2D9
330
C7
100
AcDbEntity
  8
LAYER0016
 62
     8
100
AcDbBlockReference
  2
_OPEN30
 10
-1532.319848098545
 20
-754.5889299422836
 30
0.0
 41
29.99997611445993
 42
30.00008592479957
 50
180.0
  0
INSERT
  5
2DA
330
C7
100
AcDbEntity
  8
LAYER0016
 62
     8
100
AcDbBlockReference
  2
_OPEN30
 10
-1241.519848098546
 20
-754.5889299422836
 30
0.0
 41
29.99997611445993
 42
30.00008592479957
 50
360.0
  0
TEXT
  5
2DB
330
C7
100
AcDbEntity
  8
LAYER0016
 62
     7
100
AcDbText
 10
-1404.919848098546
 20
-739.5889299422836
 30
0.0
 40
45.0
  1
A
 41
0.988235294117647
  7
FDASTYLE0
 72
     5
 11
-1368.919848098546
 21
-739.5889299422836
 31
0.0
100
AcDbText
  0
ENDBLK
  5
C9
330
C7
100
AcDbEntity
  8
0
100
AcDbBlockEnd
  0
BLOCK
  5
CB
330
CA
100
AcDbEntity
  8
0
100
AcDbBlockBegin
  2
DA_IMAGEDIMGROUP_6
 70
     0
 71
     0
 10
0.0
 20
0.0
 30
0.0
  3
DA_IMAGEDIMGROUP_6
  1

  0
LINE
  5
2DC
330
CA
100
AcDbEntity
  8
LAYER0016
 62
     8
100
AcDbLine
 10
-1628.567163752679
 20
-1139.589673913044
 30
0.0
 11
-1628.567163752679
 21
-1367.589673913044
 31
0.0
  0
LINE
  5
2DD
330
CA
100
AcDbEntity
  8
LAYER0016
 62
     8
100
AcDbLine
 10
272.5000000000002
 20
-509.6906221357191
 30
0.0
 11
272.5000000000002
 21
-1367.589673913044
 31
0.0
  0
LINE
  5
2DE
330
CA
100
AcDbEntity
  8
LAYER0016
 62
     8
100
AcDbLine
 10
-1628.567163752679
 20
-1352.589673913044
 30
0.0
 11
272.5000000000002
 21
-1352.589673913044
 31
0.0
  0
INSERT
  5
2DF
330
CA
100
AcDbEntity
  8
LAYER0016
 62
     8
100
AcDbBlockReference
  2
_OPEN30
 10
-1628.567163752679
 20
-1352.589673913044
 30
0.0
 41
29.99997611445993
 42
30.00008592479957
 50
180.0
  0
INSERT
  5
2E0
330
CA
100
AcDbEntity
  8
LAYER0016
 62
     8
100
AcDbBlockReference
  2
_OPEN30
 10
272.5000000000002
 20
-1352.589673913044
 30
0.0
 41
29.99997611445993
 42
30.00008592479957
 50
360.0
  0
TEXT
  5
2E1
330
CA
100
AcDbEntity
  8
LAYER0016
 62
     7
100
AcDbText
 10
-696.0335818763394
 20
-1337.589673913044
 30
0.0
 40
45.0
  1
C
 41
0.9333333333333334
  7
FDASTYLE0
 72
     5
 11
-660.0335818763394
 21
-1337.589673913044
 31
0.0
100
AcDbText
  0
ENDBLK
  5
CC
330
CA
100
AcDbEntity
  8
0
100
AcDbBlockEnd
  0
BLOCK
  5
CE
330
CD
100
AcDbEntity
  8
0
100
AcDbBlockBegin
  2
DA_IMAGEDIMGROUP_7
 70
     0
 71
     0
 10
0.0
 20
0.0
 30
0.0
  3
DA_IMAGEDIMGROUP_7
  1

  0
LINE
  5
2E2
330
CD
100
AcDbEntity
  8
LAYER0016
 62
     8
100
AcDbLine
 10
422.5000000000003
 20
631.3149732515376
 30
0.0
 11
422.5000000000003
 21
800.014945652174
 31
0.0
  0
LINE
  5
2E3
330
CD
100
AcDbEntity
  8
LAYER0016
 62
     8
100
AcDbLine
 10
422.5000000000003
 20
1094.014945652174
 30
0.0
 11
422.5000000000003
 21
1204.014945652174
 31
0.0
  0
LINE
  5
2E4
330
CD
100
AcDbEntity
  8
LAYER0016
 62
     8
100
AcDbLine
 10
60.48298361670436
 20
631.3149732515376
 30
0.0
 11
437.5000000000003
 21
631.3149732515376
 31
0.0
  0
LINE
  5
2E5
330
CD
100
AcDbEntity
  8
LAYER0016
 62
     8
100
AcDbLine
 10
287.5000000000002
 20
800.014945652174
 30
0.0
 11
437.5000000000003
 21
800.014945652174
 31
0.0
  0
LINE
  5
2E6
330
CD
100
AcDbEntity
  8
LAYER0016
 62
     8
100
AcDbLine
 10
287.5000000000002
 20
1094.014945652174
 30
0.0
 11
437.5000000000003
 21
1094.014945652174
 31
0.0
  0
LINE
  5
2E7
330
CD
100
AcDbEntity
  8
LAYER0016
 62
     8
100
AcDbLine
 10
197.4557033387328
 20
1204.014945652174
 30
0.0
 11
437.5000000000003
 21
1204.014945652174
 31
0.0
  0
LINE
  5
2E8
330
CD
100
AcDbEntity
  8
LAYER0016
 62
     8
100
AcDbLine
 10
422.5000000000003
 20
800.014945652174
 30
0.0
 11
422.5000000000003
 21
1094.014945652174
 31
0.0
  0
INSERT
  5
2E9
330
CD
100
AcDbEntity
  8
LAYER0016
 62
     8
100
AcDbBlockReference
  2
_OPEN30
 10
422.5000000000003
 20
800.014945652174
 30
0.0
 41
29.99997611445993
 42
30.00008592479957
 50
270.0
  0
INSERT
  5
2EA
330
CD
100
AcDbEntity
  8
LAYER0016
 62
     8
100
AcDbBlockReference
  2
_OPEN30
 10
422.5000000000003
 20
1094.014945652174
 30
0.0
 41
29.99997611445993
 42
30.00008592479957
 50
90.0
  0
LINE
  5
2EB
330
CD
100
AcDbEntity
  8
LAYER0016
 62
     8
100
AcDbLine
 10
422.5000000000003
 20
1370.992695652174
 30
0.0
 11
422.5000000000003
 21
1204.014945652174
 31
0.0
  0
INSERT
  5
2EC
330
CD
100
AcDbEntity
  8
LAYER0016
 62
     8
100
AcDbBlockReference
  2
_OPEN30
 10
422.5000000000003
 20
1204.014945652174
 30
0.0
 41
29.99997611445993
 42
30.00008592479957
 50
270.0
  0
TEXT
  5
2ED
330
CD
100
AcDbEntity
  8
LAYER0016
 62
     7
100
AcDbText
 10
407.5000000000003
 20
697.6649594518558
 30
0.0
 40
45.0
  1
G
 50
90.0
 41
0.9333333333333334
  7
FDASTYLE0
 72
     5
 11
407.5000000000003
 21
733.6649594518558
 31
0.0
100
AcDbText
  0
TEXT
  5
2EE
330
CD
100
AcDbEntity
  8
LAYER0016
 62
     7
100
AcDbText
 10
407.5000000000003
 20
929.014945652174
 30
0.0
 40
45.0
  1
A
 50
90.0
 41
0.988235294117647
  7
FDASTYLE0
 72
     5
 11
407.5000000000003
 21
965.014945652174
 31
0.0
100
AcDbText
  0
TEXT
  5
2EF
330
CD
100
AcDbEntity
  8
LAYER0016
 62
     7
100
AcDbText
 10
407.5000000000003
 20
1247.992695652174
 30
0.0
 40
45.0
  1
110
 50
90.0
 41
0.8842105263157896
  7
FDASTYLE0
 72
     5
 11
407.5000000000003
 21
1355.992695652174
 31
0.0
100
AcDbText
  0
ENDBLK
  5
CF
330
CD
100
AcDbEntity
  8
0
100
AcDbBlockEnd
  0
BLOCK
  5
D1
330
D0
100
AcDbEntity
  8
0
100
AcDbBlockBegin
  2
DA_IMAGEDIMGROUP_8
 70
     0
 71
     0
 10
0.0
 20
0.0
 30
0.0
  3
DA_IMAGEDIMGROUP_8
  1

  0
LINE
  5
2F0
330
D0
100
AcDbEntity
  8
LAYER0016
 62
     8
100
AcDbLine
 10
-1229.719848098546
 20
-604.5889299422836
 30
0.0
 11
-1076.519848098546
 21
-604.5889299422836
 31
0.0
  0
LINE
  5
2F1
330
D0
100
AcDbEntity
  8
LAYER0016
 62
     8
100
AcDbLine
 10
-1229.719848098546
 20
-442.5889299422832
 30
0.0
 11
-1076.519848098546
 21
-442.5889299422832
 31
0.0
  0
LINE
  5
2F2
330
D0
100
AcDbEntity
  8
LAYER0016
 62
     8
100
AcDbLine
 10
-1091.519848098546
 20
-604.5889299422836
 30
0.0
 11
-1091.519848098546
 21
-442.5889299422832
 31
0.0
  0
INSERT
  5
2F3
330
D0
100
AcDbEntity
  8
LAYER0016
 62
     8
100
AcDbBlockReference
  2
_OPEN30
 10
-1091.519848098546
 20
-604.5889299422836
 30
0.0
 41
29.99997611445993
 42
30.00008592479957
 50
270.0
  0
INSERT
  5
2F4
330
D0
100
AcDbEntity
  8
LAYER0016
 62
     8
100
AcDbBlockReference
  2
_OPEN30
 10
-1091.519848098546
 20
-442.5889299422832
 30
0.0
 41
29.99997611445993
 42
30.00008592479957
 50
90.0
  0
TEXT
  5
2F5
330
D0
100
AcDbEntity
  8
LAYER0016
 62
     7
100
AcDbText
 10
-1106.519848098546
 20
-541.5889299422834
 30
0.0
 40
45.0
  1
B
 50
90.0
 41
0.9333333333333334
  7
FDASTYLE0
 72
     5
 11
-1106.519848098546
 21
-505.5889299422834
 31
0.0
100
AcDbText
  0
ENDBLK
  5
D2
330
D0
100
AcDbEntity
  8
0
100
AcDbBlockEnd
  0
BLOCK
  5
D4
330
D3
100
AcDbEntity
  8
0
100
AcDbBlockBegin
  2
GROUP_37
 70
     0
 71
     0
 10
0.0
 20
0.0
 30
0.0
  3
GROUP_37
  1

  0
LINE
  5
2F6
330
D3
100
AcDbEntity
  8
0
  6
CENTER
 62
     9
100
AcDbLine
 10
-957.0325216363036
 20
391.9006759192949
 30
0.0
 11
-1166.98198869655
 21
391.9006759192949
 31
0.0
  0
LINE
  5
2F7
330
D3
100
AcDbEntity
  8
0
  6
CENTER
 62
     9
100
AcDbLine
 10
-956.5728915736755
 20
437.9017579223793
 30
0.0
 11
-956.5728915736755
 21
457.9017725851214
 31
0.0
  0
LINE
  5
2F8
330
D3
100
AcDbEntity
  8
0
  6
CENTER
 62
     9
100
AcDbLine
 10
-966.5728760168637
 20
447.9017423655674
 30
0.0
 11
-946.5729071304875
 21
447.9017423655674
 31
0.0
  0
LINE
  5
2F9
330
D3
100
AcDbEntity
  8
0
  6
CENTER
 62
     9
100
AcDbLine
 10
-830.572895328768
 20
437.9017579223793
 30
0.0
 11
-830.572895328768
 21
457.9017725851214
 31
0.0
  0
LINE
  5
2FA
330
D3
100
AcDbEntity
  8
0
  6
CENTER
 62
     9
100
AcDbLine
 10
-840.5728797719562
 20
321.9017461206603
 30
0.0
 11
-820.5729108855799
 21
321.9017461206603
 31
0.0
  0
LINE
  5
2FB
330
D3
100
AcDbEntity
  8
0
  6
CENTER
 62
     9
100
AcDbLine
 10
-830.572895328768
 20
311.901738789289
 30
0.0
 11
-830.572895328768
 21
331.9017534520311
 31
0.0
  0
LINE
  5
2FC
330
D3
100
AcDbEntity
  8
0
  6
CENTER
 62
     9
100
AcDbLine
 10
-966.5728760168637
 20
321.9017461206603
 30
0.0
 11
-946.5729071304875
 21
321.9017461206603
 31
0.0
  0
LINE
  5
2FD
330
D3
100
AcDbEntity
  8
0
  6
CENTER
 62
     9
100
AcDbLine
 10
-956.5728915736755
 20
311.901738789289
 30
0.0
 11
-956.5728915736755
 21
331.9017534520311
 31
0.0
  0
LINE
  5
2FE
330
D3
100
AcDbEntity
  8
0
  6
CENTER
 62
     9
100
AcDbLine
 10
-940.2034618175537
 20
400.9017742838538
 30
0.0
 11
-802.5729109749868
 21
400.9017742838538
 31
0.0
  0
LINE
  5
2FF
330
D3
100
AcDbEntity
  8
0
  6
CENTER
 62
     9
100
AcDbLine
 10
-840.5728797719562
 20
447.9017423655674
 30
0.0
 11
-820.5729108855799
 21
447.9017423655674
 31
0.0
  0
LINE
  5
300
330
D3
100
AcDbEntity
  8
0
  6
CENTER
 62
     9
100
AcDbLine
 10
-830.572895328768
 20
437.9017579223793
 30
0.0
 11
-830.572895328768
 21
457.9017725851214
 31
0.0
  0
LINE
  5
301
330
D3
100
AcDbEntity
  8
0
  6
CENTER
 62
     9
100
AcDbLine
 10
-877.5729091868477
 20
573.8017782084827
 30
0.0
 11
-877.5729091868477
 21
247.9017742838543
 31
0.0
  0
LINE
  5
302
330
D3
100
AcDbEntity
  8
0
  6
CENTER
 62
     9
100
AcDbLine
 10
-840.572925548322
 20
447.9017423655674
 30
0.0
 11
-820.5729108855799
 21
447.9017423655674
 31
0.0
  0
LINE
  5
303
330
D3
100
AcDbEntity
  8
0
  6
CENTER
 62
     9
100
AcDbLine
 10
-1145.45480896092
 20
309.902100111958
 30
0.0
 11
-1169.26730896092
 21
309.902100111958
 31
0.0
  0
LINE
  5
304
330
D3
100
AcDbEntity
  8
0
  6
CENTER
 62
     9
100
AcDbLine
 10
-1119.572997342115
 20
339.9019593562701
 30
0.0
 11
-1119.572997342115
 21
284.6740754599258
 31
0.0
  0
LINE
  5
305
330
D3
100
AcDbEntity
  8
0
  6
CENTER
 62
     9
100
AcDbLine
 10
-1151.895891217097
 20
287.1229861281425
 30
0.0
 11
-1156.514372849485
 21
298.8477530154759
 31
0.0
  0
LINE
  5
306
330
D3
100
AcDbEntity
  8
0
 62
     7
100
AcDbLine
 10
-969.5728759274567
 20
447.9017423655674
 30
0.0
 11
-969.5728759274567
 21
321.8899129300947
 31
0.0
  0
LINE
  5
307
330
D3
100
AcDbEntity
  8
0
 62
     7
100
AcDbLine
 10
-956.5728915736755
 20
308.9017388786959
 30
0.0
 11
-830.572895328768
 21
308.9017388786959
 31
0.0
  0
LINE
  5
308
330
D3
100
AcDbEntity
  8
0
 62
     7
100
AcDbLine
 10
-956.5728915736755
 20
460.9017724957145
 30
0.0
 11
-830.572895328768
 21
460.9017724957145
 31
0.0
  0
LINE
  5
309
330
D3
100
AcDbEntity
  8
0
 62
     7
100
AcDbLine
 10
-817.5729109749868
 20
447.9017423655674
 30
0.0
 11
-817.5729109749868
 21
321.9017232324771
 31
0.0
  0
LINE
  5
30A
330
D3
100
AcDbEntity
  8
0
 62
     7
100
AcDbLine
 10
-979.5728926482562
 20
346.9017030028693
 30
0.0
 11
-1008.573044371862
 21
346.9017302341209
 31
0.0
  0
LINE
  5
30B
330
D3
100
AcDbEntity
  8
0
 62
     7
100
AcDbLine
 10
-979.5642479574459
 20
436.9017689771312
 30
0.0
 11
-1008.572959861461
 21
436.9017962164211
 31
0.0
  0
ARC
  5
30C
330
D3
100
AcDbEntity
  8
0
 62
     7
100
AcDbCircle
 10
-979.5729061470107
 20
446.9018034305242
 30
0.0
 40
9.999999463558213
100
AcDbArc
 50
269.999944675244
 51
0.0000086514215241
  0
ARC
  5
30D
330
D3
100
AcDbEntity
  8
0
 62
     7
100
AcDbCircle
 10
-979.5729061470107
 20
336.9017456736254
 30
0.0
 40
9.999999463558213
100
AcDbArc
 50
0.0000086514211983
 51
89.9999496842005
  0
CIRCLE
  5
30E
330
D3
100
AcDbEntity
  8
0
 62
     7
100
AcDbCircle
 10
-877.5729091868477
 20
400.9017742838538
 30
0.0
 40
42.49996821582412
  0
ARC
  5
30F
330
D3
100
AcDbEntity
  8
0
 62
     7
100
AcDbCircle
 10
-979.5729061470107
 20
446.9017576541584
 30
0.0
 40
9.999999463558213
100
AcDbArc
 50
269.999944675244
 51
0.0000086514215241
  0
ARC
  5
310
330
D3
100
AcDbEntity
  8
0
 62
     7
100
AcDbCircle
 10
-979.5729061470107
 20
336.9017227854423
 30
0.0
 40
9.999999463558213
100
AcDbArc
 50
359.9999949910431
 51
89.99994968420049
  0
ARC
  5
311
330
D3
100
AcDbEntity
  8
0
 62
     7
100
AcDbCircle
 10
-956.5728915736755
 20
447.9017423655674
 30
0.0
 40
13.00000008940696
100
AcDbArc
 50
90.00000432571393
 51
180.0000050089569
  0
ARC
  5
312
330
D3
100
AcDbEntity
  8
0
 62
     7
100
AcDbCircle
 10
-956.5728915736755
 20
321.9017232324771
 30
0.0
 40
13.00000008940696
100
AcDbArc
 50
179.9999949910431
 51
269.999995674286
  0
ARC
  5
313
330
D3
100
AcDbEntity
  8
0
 62
     7
100
AcDbCircle
 10
-830.572895328768
 20
447.9017423655674
 30
0.0
 40
13.00000008940696
100
AcDbArc
 50
359.9999949910431
 51
90.00000432571397
  0
ARC
  5
314
330
D3
100
AcDbEntity
  8
0
 62
     7
100
AcDbCircle
 10
-830.572895328768
 20
321.9017232324771
 30
0.0
 40
13.00000008940696
100
AcDbArc
 50
269.999999316757
 51
0.0000086514213535
  0
ARC
  5
315
330
D3
100
AcDbEntity
  8
0
 62
     7
100
AcDbCircle
 10
-956.5728915736755
 20
447.9017423655674
 30
0.0
 40
13.00000008940696
100
AcDbArc
 50
90.00001115590307
 51
180.0000043257107
  0
POINT
  5
316
330
D3
100
AcDbEntity
  8
0
  6
CONTINUOUS
 62
     7
100
AcDbPoint
 10
-1045.572995732789
 20
391.9006759192949
 30
0.0
  0
LINE
  5
317
330
D3
100
AcDbEntity
  8
0
 62
     7
100
AcDbLine
 10
-1030.572996179824
 20
434.9006593790065
 30
0.0
 11
-1030.572996179824
 21
348.9006466832176
 31
0.0
  0
LINE
  5
318
330
D3
100
AcDbEntity
  8
0
 62
     7
100
AcDbLine
 10
-1040.573003511195
 20
442.921777304021
 30
0.0
 11
-1040.573003511195
 21
341.067326298993
 31
0.0
  0
LINE
  5
319
330
D3
100
AcDbEntity
  8
0
 62
     7
100
AcDbLine
 10
-1045.572995732789
 20
443.9006591107856
 30
0.0
 11
-1045.572995732789
 21
339.9006469514385
 31
0.0
  0
LINE
  5
31A
330
D3
100
AcDbEntity
  8
0
 62
     7
100
AcDbLine
 10
-1008.572989206081
 20
346.9006543722165
 30
0.0
 11
-1011.573012004857
 21
346.9006543722165
 31
0.0
  0
LINE
  5
31B
330
D3
100
AcDbEntity
  8
0
 62
     7
100
AcDbLine
 10
-1008.572989206081
 20
436.9006745781904
 30
0.0
 11
-1011.573012004857
 21
436.9006745781904
 31
0.0
  0
LINE
  5
31C
330
D3
100
AcDbEntity
  8
0
 62
     7
100
AcDbLine
 10
-1015.037115600349
 20
348.9006466832176
 30
0.0
 11
-1029.805532518614
 21
348.9006466832176
 31
0.0
  0
LINE
  5
31D
330
D3
100
AcDbEntity
  8
0
 62
     7
100
AcDbLine
 10
-1015.037115600349
 20
434.9006593790065
 30
0.0
 11
-1029.805532518614
 21
434.9006593790065
 31
0.0
  0
LINE
  5
31E
330
D3
100
AcDbEntity
  8
0
 62
     7
100
AcDbLine
 10
-1041.340490060588
 20
443.9006591107856
 30
0.0
 11
-1045.572995732789
 21
443.9006591107856
 31
0.0
  0
LINE
  5
31F
330
D3
100
AcDbEntity
  8
0
 62
     7
100
AcDbLine
 10
-1041.340490060588
 20
339.9006469514385
 30
0.0
 11
-1045.572995732789
 21
339.9006469514385
 31
0.0
  0
LINE
  5
320
330
D3
100
AcDbEntity
  8
0
 62
     7
100
AcDbLine
 10
-1031.143426766927
 20
348.3872687420513
 30
0.0
 11
-1040.002527102884
 21
340.4140780134443
 31
0.0
  0
LINE
  5
321
330
D3
100
AcDbEntity
  8
0
 62
     7
100
AcDbLine
 10
-1031.143480728993
 20
435.4140319995439
 30
0.0
 11
-1040.002564052297
 21
443.3872074167633
 31
0.0
  0
ARC
  5
322
330
D3
100
AcDbEntity
  8
0
 62
     7
100
AcDbCircle
 10
-1011.573012004857
 20
348.9006466832176
 30
0.0
 40
2.0
100
AcDbArc
 50
209.9998904354362
 51
270.0000025044818
  0
ARC
  5
323
330
D3
100
AcDbEntity
  8
0
 62
     7
100
AcDbCircle
 10
-1015.037115600349
 20
346.9006543722165
 30
0.0
 40
2.0
100
AcDbArc
 50
30.00000265605915
 51
89.99999749552154
  0
ARC
  5
324
330
D3
100
AcDbEntity
  8
0
 62
     7
100
AcDbCircle
 10
-1011.573012004857
 20
434.9006593790065
 30
0.0
 40
2.0
100
AcDbArc
 50
89.99999749551829
 51
149.9998256392886
  0
ARC
  5
325
330
D3
100
AcDbEntity
  8
0
 62
     7
100
AcDbCircle
 10
-1015.037115600349
 20
436.9006745781904
 30
0.0
 40
2.0
100
AcDbArc
 50
270.0000025044785
 51
329.9999973439408
  0
ARC
  5
326
330
D3
100
AcDbEntity
  8
0
 62
     7
100
AcDbCircle
 10
-1029.805532518614
 20
436.9006745781904
 30
0.0
 40
2.0
100
AcDbArc
 50
228.0127874498491
 51
270.0000025044785
  0
ARC
  5
327
330
D3
100
AcDbEntity
  8
0
 62
     7
100
AcDbCircle
 10
-1029.805532518614
 20
346.9006543722165
 30
0.0
 40
2.0
100
AcDbArc
 50
89.99999749552154
 51
131.9872125501509
  0
ARC
  5
328
330
D3
100
AcDbEntity
  8
0
 62
     7
100
AcDbCircle
 10
-1041.340490060588
 20
441.9006896879674
 30
0.0
 40
2.0
100
AcDbArc
 50
48.01278244089053
 51
89.99999749551829
  0
ARC
  5
329
330
D3
100
AcDbEntity
  8
0
 62
     7
100
AcDbCircle
 10
-1041.340490060588
 20
341.9006621506222
 30
0.0
 40
2.0
100
AcDbArc
 50
270.0000025044818
 51
311.9872175591095
  0
POINT
  5
32A
330
D3
100
AcDbEntity
  8
0
  6
CONTINUOUS
 62
     7
100
AcDbPoint
 10
-1154.573721091492
 20
391.9006759192949
 30
0.0
  0
LINE
  5
32B
330
D3
100
AcDbEntity
  8
0
 62
     7
100
AcDbLine
 10
-1143.572996626859
 20
334.9019593562706
 30
0.0
 11
-1143.572996626859
 21
451.4006588872682
 31
0.0
  0
LINE
  5
32C
330
D3
100
AcDbEntity
  8
0
 62
     7
100
AcDbLine
 10
-1154.573721091492
 20
346.9006772603992
 30
0.0
 11
-1154.573721091492
 21
436.9005830254588
 31
0.0
  0
LINE
  5
32D
330
D3
100
AcDbEntity
  8
0
 62
     7
100
AcDbLine
 10
-1150.573473255387
 20
346.9006772603992
 30
0.0
 11
-1154.57346932148
 21
346.9006772603992
 31
0.0
  0
LINE
  5
32E
330
D3
100
AcDbEntity
  8
0
 62
     7
100
AcDbLine
 10
-1150.573713581307
 20
339.1506698619731
 30
0.0
 11
-1150.573713581307
 21
444.6506590884338
 31
0.0
  0
LINE
  5
32F
330
D3
100
AcDbEntity
  8
0
 62
     7
100
AcDbLine
 10
-1154.573721091492
 20
436.9005830254588
 30
0.0
 11
-1150.573713581307
 21
436.9005830254588
 31
0.0
  0
LINE
  5
330
330
D3
100
AcDbEntity
  8
0
 62
     7
100
AcDbLine
 10
-1143.572985182768
 20
444.6506590884338
 30
0.0
 11
-1150.573713581307
 21
444.6506590884338
 31
0.0
  0
LINE
  5
331
330
D3
100
AcDbEntity
  8
0
 62
     7
100
AcDbLine
 10
-1150.573221485375
 20
339.1506698619731
 30
0.0
 11
-1143.572515975018
 21
339.1506698619731
 31
0.0
  0
LINE
  5
332
330
D3
100
AcDbEntity
  8
0
 62
     7
100
AcDbLine
 10
-1143.572985182768
 20
451.4006588872682
 30
0.0
 11
-1045.572972844606
 21
451.4006588872682
 31
0.0
  0
LINE
  5
333
330
D3
100
AcDbEntity
  8
0
 62
     7
100
AcDbLine
 10
-1045.572995732789
 20
334.9019593562706
 30
0.0
 11
-1045.572995732789
 21
451.4006588872682
 31
0.0
  0
LINE
  5
334
330
D3
100
AcDbEntity
  8
0
 62
     7
100
AcDbLine
 10
-1143.572996626859
 20
334.9019593562706
 30
0.0
 11
-1045.572995732789
 21
334.9019593562706
 31
0.0
  0
CIRCLE
  5
335
330
D3
100
AcDbEntity
  8
0
 62
     7
100
AcDbCircle
 10
-877.5729091868477
 20
400.9017742838538
 30
0.0
 40
22.49999827891596
  0
POINT
  5
336
330
D3
100
AcDbEntity
  8
0
  6
CONTINUOUS
 62
     2
100
AcDbPoint
 10
-1157.072957764631
 20
309.9020390768018
 30
0.0
  0
LINE
  5
337
330
D3
100
AcDbEntity
  8
0
 62
     2
100
AcDbLine
 10
-1078.500432740217
 20
331.9019646902051
 30
0.0
 11
-1152.07297302342
 21
331.9019646902051
 31
0.0
  0
LINE
  5
338
330
D3
100
AcDbEntity
  8
0
 62
     2
100
AcDbLine
 10
-1157.07297302342
 20
292.2207799215283
 30
0.0
 11
-1157.07297302342
 21
326.901970412251
 31
0.0
  0
LINE
  5
339
330
D3
100
AcDbEntity
  8
0
 62
     2
100
AcDbLine
 10
-1072.576189897676
 20
325.5047652006523
 30
0.0
 11
-1073.848419352423
 21
328.7345078522902
 31
0.0
  0
LINE
  5
33A
330
D3
100
AcDbEntity
  8
0
 62
     2
100
AcDbLine
 10
-1161.13869739982
 20
287.394912129539
 30
0.0
 11
-1066.236443019784
 21
324.7776868096888
 31
0.0
  0
LINE
  5
33B
330
D3
100
AcDbEntity
  8
0
 62
     2
100
AcDbLine
 10
-1069.958038862935
 20
306.5946638502654
 30
0.0
 11
-1069.95800574834
 21
323.3115961469856
 31
0.0
  0
LINE
  5
33C
330
D3
100
AcDbEntity
  8
0
 62
     2
100
AcDbLine
 10
-1066.236428822728
 20
324.7776924020253
 30
0.0
 11
-1067.346015541097
 21
327.5945587770956
 31
0.0
  0
LINE
  5
33D
330
D3
100
AcDbEntity
  8
0
 62
     2
100
AcDbLine
 10
-1162.2381955427
 20
290.1861670146772
 30
0.0
 11
-1067.335941162664
 21
327.5689416948261
 31
0.0
  0
LINE
  5
33E
330
D3
100
AcDbEntity
  8
0
 62
     2
100
AcDbLine
 10
-1142.572881470685
 20
334.9019593562706
 30
0.0
 11
-1142.572881470685
 21
331.9019656438794
 31
0.0
  0
LINE
  5
33F
330
D3
100
AcDbEntity
  8
0
 62
     2
100
AcDbLine
 10
-1096.573113213544
 20
334.9019593562706
 30
0.0
 11
-1096.573113213544
 21
331.9019656438794
 31
0.0
  0
ARC
  5
340
330
D3
100
AcDbEntity
  8
0
 62
     2
100
AcDbCircle
 10
-1152.072896729475
 20
326.9019646902051
 30
0.0
 40
5.0
100
AcDbArc
 50
90.00009061369796
 51
179.9998540615587
  0
ARC
  5
341
330
D3
100
AcDbEntity
  8
0
 62
     2
100
AcDbCircle
 10
-1078.500432740217
 20
326.9019761342969
 30
0.0
 40
5.0
100
AcDbArc
 50
21.49994220024395
 51
89.99985474478871
  0
ARC
  5
342
330
D3
100
AcDbEntity
  8
0
 62
     2
100
AcDbCircle
 10
-1084.957998047834
 20
306.5946202535596
 30
0.0
 40
15.0
100
AcDbArc
 50
273.1387336052466
 51
359.9997634478477
  0
LINE
  5
343
330
D3
100
AcDbEntity
  8
0
 62
     2
100
AcDbLine
 10
-1161.138683202763
 20
287.3949177218764
 30
0.0
 11
-1162.238181345643
 21
290.1861726070137
 31
0.0
  0
LINE
  5
344
330
D3
100
AcDbEntity
  8
0
 62
     2
100
AcDbLine
 10
-1084.136807904074
 20
291.6171849846704
 30
0.0
 11
-1154.768387225267
 21
287.7441699482559
 31
0.0
  0
ARC
  5
345
330
D3
100
AcDbEntity
  8
0
 62
     2
100
AcDbCircle
 10
-1154.932698975568
 20
290.7396245260205
 30
0.0
 40
3.0
100
AcDbArc
 50
236.0772746757873
 51
273.1386789637353
  0
ARC
  5
346
330
D3
100
AcDbEntity
  8
0
 62
     2
100
AcDbCircle
 10
-1157.72304321385
 20
286.5906834859815
 30
0.0
 40
2.0
100
AcDbArc
 50
56.07725577903656
 51
111.4992138744742
  0
ENDBLK
  5
D5
330
D3
100
AcDbEntity
  8
0
100
AcDbBlockEnd
  0
BLOCK
  5
D7
330
D6
100
AcDbEntity
  8
0
100
AcDbBlockBegin
  2
GROUP_38
 70
     0
 71
     0
 10
0.0
 20
0.0
 30
0.0
  3
GROUP_38
  1

  0
LINE
  5
348
330
D6
100
AcDbEntity
  8
0
 62
     7
100
AcDbLine
 10
-873.57292462445
 20
412.7445014155754
 30
0.0
 11
-873.57292462445
 21
416.7017613705081
 31
0.0
  0
LINE
  5
349
330
D6
100
AcDbEntity
  8
0
 62
     7
100
AcDbLine
 10
-881.5728937492454
 20
412.7445014155754
 30
0.0
 11
-881.5728937492454
 21
416.7017613705081
 31
0.0
  0
LINE
  5
34A
330
D6
100
AcDbEntity
  8
0
 62
     7
100
AcDbLine
 10
-873.57292462445
 20
416.7017613705081
 30
0.0
 11
-881.5728937492454
 21
416.7017613705081
 31
0.0
  0
ARC
  5
34B
330
D6
100
AcDbEntity
  8
0
 62
     7
100
AcDbCircle
 10
-877.5729091868477
 20
400.9017742838538
 30
0.0
 40
12.49999932199719
100
AcDbArc
 50
108.6629261393462
 51
71.33707249416312
  0
ENDBLK
  5
D8
330
D6
100
AcDbEntity
  8
0
100
AcDbBlockEnd
  0
BLOCK
  5
DA
330
D9
100
AcDbEntity
  8
0
100
AcDbBlockBegin
  2
GROUP_39
 70
     0
 71
     0
 10
0.0
 20
0.0
 30
0.0
  3
GROUP_39
  1

  0
TEXT
  5
34D
330
D9
100
AcDbEntity
  8
LAYER0064
 62
     7
100
AcDbText
 10
-1501.019848098546
 20
-142.1994372251926
 30
0.0
 40
56.25
  1
M矢視図
 41
0.7977640247554402
  7
FDASTYLE1
 72
     5
 11
-1276.019848098546
 21
-142.1994372251926
 31
0.0
100
AcDbText
  0
LINE
  5
34E
330
D9
100
AcDbEntity
  8
LAYER0064
 62
     4
100
AcDbLine
 10
-1501.019848098546
 20
-161.8869372251926
 30
0.0
 11
-1276.019848098546
 21
-161.8869372251926
 31
0.0
  0
LINE
  5
34F
330
D9
100
AcDbEntity
  8
LAYER0064
 62
     4
100
AcDbLine
 10
-1501.019848098546
 20
-153.4494372251926
 30
0.0
 11
-1276.019848098546
 21
-153.4494372251926
 31
0.0
  0
ENDBLK
  5
DB
330
D9
100
AcDbEntity
  8
0
100
AcDbBlockEnd
  0
BLOCK
  5
DD
330
DC
100
AcDbEntity
  8
0
100
AcDbBlockBegin
  2
DA_IMAGEDIMGROUP_9
 70
     0
 71
     0
 10
0.0
 20
0.0
 30
0.0
  3
DA_IMAGEDIMGROUP_9
  1

  0
LINE
  5
350
330
DC
100
AcDbEntity
  8
LAYER0016
 62
     8
100
AcDbLine
 10
1174.250000000001
 20
-1217.581733865995
 30
0.0
 11
1174.250000000001
 21
-1367.581733865995
 31
0.0
  0
LINE
  5
351
330
DC
100
AcDbEntity
  8
LAYER0016
 62
     8
100
AcDbLine
 10
1468.250000000001
 20
-1217.581733865995
 30
0.0
 11
1468.250000000001
 21
-1367.581733865995
 31
0.0
  0
LINE
  5
352
330
DC
100
AcDbEntity
  8
LAYER0016
 62
     8
100
AcDbLine
 10
1174.250000000001
 20
-1352.581733865995
 30
0.0
 11
1468.250000000001
 21
-1352.581733865995
 31
0.0
  0
INSERT
  5
353
330
DC
100
AcDbEntity
  8
LAYER0016
 62
     8
100
AcDbBlockReference
  2
_OPEN30
 10
1174.250000000001
 20
-1352.581733865995
 30
0.0
 41
29.99997611445993
 42
30.00008592479957
 50
180.0
  0
INSERT
  5
354
330
DC
100
AcDbEntity
  8
LAYER0016
 62
     8
100
AcDbBlockReference
  2
_OPEN30
 10
1468.250000000001
 20
-1352.581733865995
 30
0.0
 41
29.99997611445993
 42
30.00008592479957
 50
360.0
  0
TEXT
  5
355
330
DC
100
AcDbEntity
  8
LAYER0016
 62
     7
100
AcDbText
 10
1303.250000000001
 20
-1337.581733865995
 30
0.0
 40
45.0
  1
A
 41
0.988235294117647
  7
FDASTYLE0
 72
     5
 11
1339.250000000001
 21
-1337.581733865995
 31
0.0
100
AcDbText
  0
ENDBLK
  5
DE
330
DC
100
AcDbEntity
  8
0
100
AcDbBlockEnd
  0
BLOCK
  5
E0
330
DF
100
AcDbEntity
  8
0
100
AcDbBlockBegin
  2
GROUP_40
 70
     0
 71
     0
 10
0.0
 20
0.0
 30
0.0
  3
GROUP_40
  1

  0
TEXT
  5
356
330
DF
100
AcDbEntity
  8
LAYER0064
 62
     7
100
AcDbText
 10
-680.0729091868628
 20
115.9017742838538
 30
0.0
 40
75.0
  1
S型
 41
0.9306008383791335
  7
FDASTYLE1
 72
     5
 11
-530.0729091868628
 21
115.9017742838538
 31
0.0
100
AcDbText
  0
LINE
  5
357
330
DF
100
AcDbEntity
  8
LAYER0064
 62
     4
100
AcDbLine
 10
-702.5729091868628
 20
100.9017742838538
 30
0.0
 11
-507.5729091868628
 21
100.9017742838538
 31
0.0
  0
LINE
  5
358
330
DF
100
AcDbEntity
  8
LAYER0064
 62
     4
100
AcDbLine
 10
-507.5729091868628
 20
100.9017742838538
 30
0.0
 11
-507.5729091868628
 21
205.9017742838538
 31
0.0
  0
LINE
  5
359
330
DF
100
AcDbEntity
  8
LAYER0064
 62
     4
100
AcDbLine
 10
-702.5729091868628
 20
205.9017742838538
 30
0.0
 11
-507.5729091868628
 21
205.9017742838538
 31
0.0
  0
LINE
  5
35A
330
DF
100
AcDbEntity
  8
LAYER0064
 62
     4
100
AcDbLine
 10
-702.5729091868628
 20
100.9017742838538
 30
0.0
 11
-702.5729091868628
 21
205.9017742838538
 31
0.0
  0
ENDBLK
  5
E1
330
DF
100
AcDbEntity
  8
0
100
AcDbBlockEnd
  0
BLOCK
  5
E3
330
E2
100
AcDbEntity
  8
0
100
AcDbBlockBegin
  2
DA_IMAGEDIMGROUP_10
 70
     0
 71
     0
 10
0.0
 20
0.0
 30
0.0
  3
DA_IMAGEDIMGROUP_10
  1

  0
LINE
  5
35B
330
E2
100
AcDbEntity
  8
LAYER0016
 62
     8
100
AcDbLine
 10
-252.8630896202965
 20
626.3150551757057
 30
0.0
 11
-252.8630896202965
 21
466.3149791797856
 31
0.0
  0
LINE
  5
35C
330
E2
100
AcDbEntity
  8
LAYER0016
 62
     8
100
AcDbLine
 10
272.5000000000002
 20
785.014945652174
 30
0.0
 11
272.5000000000002
 21
466.3149791797856
 31
0.0
  0
LINE
  5
35D
330
E2
100
AcDbEntity
  8
LAYER0016
 62
     8
100
AcDbLine
 10
-252.8630896202965
 20
481.3149791797856
 30
0.0
 11
272.5000000000002
 21
481.3149791797856
 31
0.0
  0
INSERT
  5
35E
330
E2
100
AcDbEntity
  8
LAYER0016
 62
     8
100
AcDbBlockReference
  2
_OPEN30
 10
-252.8630896202965
 20
481.3149791797856
 30
0.0
 41
29.99997611445993
 42
30.00008592479957
 50
180.0
  0
INSERT
  5
35F
330
E2
100
AcDbEntity
  8
LAYER0016
 62
     8
100
AcDbBlockReference
  2
_OPEN30
 10
272.5000000000002
 20
481.3149791797856
 30
0.0
 41
29.99997611445993
 42
30.00008592479957
 50
360.0
  0
TEXT
  5
360
330
E2
100
AcDbEntity
  8
LAYER0016
 62
     7
100
AcDbText
 10
-8.181544810148154
 20
496.3149791797856
 30
0.0
 40
45.0
  1
J
 41
1.4
  7
FDASTYLE0
 72
     5
 11
27.81845518985185
 21
496.3149791797856
 31
0.0
100
AcDbText
  0
ENDBLK
  5
E4
330
E2
100
AcDbEntity
  8
0
100
AcDbBlockEnd
  0
BLOCK
  5
E6
330
E5
100
AcDbEntity
  8
0
100
AcDbBlockBegin
  2
DA_IMAGEDIMGROUP_11
 70
     0
 71
     0
 10
0.0
 20
0.0
 30
0.0
  3
DA_IMAGEDIMGROUP_11
  1

  0
LINE
  5
361
330
E5
100
AcDbEntity
  8
LAYER0016
 62
     8
100
AcDbLine
 10
-712.5729091867796
 20
537.9017742838051
 30
0.0
 11
-512.5729091868642
 21
537.9017742838051
 31
0.0
  0
LINE
  5
362
330
E5
100
AcDbEntity
  8
LAYER0016
 62
     8
100
AcDbLine
 10
-662.5729091868642
 20
277.9017742837889
 30
0.0
 11
-512.5729091868642
 21
277.9017742837889
 31
0.0
  0
LINE
  5
363
330
E5
100
AcDbEntity
  8
LAYER0016
 62
     8
100
AcDbLine
 10
-527.5729091868642
 20
277.9017742837889
 30
0.0
 11
-527.5729091868642
 21
537.9017742838051
 31
0.0
  0
INSERT
  5
364
330
E5
100
AcDbEntity
  8
LAYER0016
 62
     8
100
AcDbBlockReference
  2
_OPEN30
 10
-527.5729091868642
 20
277.9017742837889
 30
0.0
 41
29.99997611445993
 42
30.00008592479957
 50
270.0
  0
INSERT
  5
365
330
E5
100
AcDbEntity
  8
LAYER0016
 62
     8
100
AcDbBlockReference
  2
_OPEN30
 10
-527.5729091868642
 20
537.9017742838051
 30
0.0
 41
29.99997611445993
 42
30.00008592479957
 50
90.0
  0
TEXT
  5
366
330
E5
100
AcDbEntity
  8
LAYER0016
 62
     7
100
AcDbText
 10
-542.5729091868642
 20
353.901774283797
 30
0.0
 40
45.0
  1
260
 50
90.0
 41
0.8842105263157896
  7
FDASTYLE0
 72
     5
 11
-542.5729091868642
 21
461.901774283797
 31
0.0
100
AcDbText
  0
ENDBLK
  5
E7
330
E5
100
AcDbEntity
  8
0
100
AcDbBlockEnd
  0
BLOCK
  5
E9
330
E8
100
AcDbEntity
  8
0
100
AcDbBlockBegin
  2
DA_IMAGEDIMGROUP_12
 70
     0
 71
     0
 10
0.0
 20
0.0
 30
0.0
  3
DA_IMAGEDIMGROUP_12
  1

  0
LINE
  5
367
330
E8
100
AcDbEntity
  8
LAYER0016
 62
     8
100
AcDbLine
 10
-1264.500799163909
 20
239.1113971533134
 30
0.0
 11
-1339.500799164009
 21
109.2075865857054
 31
0.0
  0
LINE
  5
368
330
E8
100
AcDbEntity
  8
LAYER0016
 62
     8
100
AcDbLine
 10
-1404.796911176866
 20
320.1113951903143
 30
0.0
 11
-1479.79691117693
 21
190.2075846227677
 31
0.0
  0
LINE
  5
369
330
E8
100
AcDbEntity
  8
LAYER0016
 62
     8
100
AcDbLine
 10
-1332.000799163999
 20
122.1979676424662
 30
0.0
 11
-1472.29691117692
 21
203.1979656795285
 31
0.0
  0
INSERT
  5
36A
330
E8
100
AcDbEntity
  8
LAYER0016
 62
     8
100
AcDbBlockReference
  2
_OPEN30
 10
-1332.000799163999
 20
122.1979676424662
 30
0.0
 41
29.99997611445993
 42
30.00008592479957
 50
329.9999999999558
  0
INSERT
  5
36B
330
E8
100
AcDbEntity
  8
LAYER0016
 62
     8
100
AcDbBlockReference
  2
_OPEN30
 10
-1472.29691117692
 20
203.1979656795285
 30
0.0
 41
29.99997611445993
 42
30.00008592479957
 50
149.9999999999559
  0
TEXT
  5
36C
330
E8
100
AcDbEntity
  8
LAYER0016
 62
     7
100
AcDbText
 10
-1441.414226974789
 20
202.6883477177942
 30
0.0
 40
45.0
  1
162
 50
329.9999999999558
 41
0.8842105263157897
  7
FDASTYLE0
 72
     5
 11
-1347.883483366111
 21
148.6883477177221
 31
0.0
100
AcDbText
  0
ENDBLK
  5
EA
330
E8
100
AcDbEntity
  8
0
100
AcDbBlockEnd
  0
BLOCK
  5
EC
330
EB
100
AcDbEntity
  8
0
100
AcDbBlockBegin
  2
GROUP_41
 70
     0
 71
     0
 10
0.0
 20
0.0
 30
0.0
  3
GROUP_41
  1

  0
LINE
  5
36D
330
EB
100
AcDbEntity
  8
LAYER0064
 62
     3
100
AcDbLine
 10
2292.500000000001
 20
-112.4999999999986
 30
0.0
 11
2977.500000000001
 21
-112.4999999999986
 31
0.0
  0
LINE
  5
36E
330
EB
100
AcDbEntity
  8
LAYER0064
 62
     3
100
AcDbLine
 10
2292.500000000001
 20
-404.9999999999977
 30
0.0
 11
2977.500000000001
 21
-404.9999999999977
 31
0.0
  0
LINE
  5
36F
330
EB
100
AcDbEntity
  8
LAYER0064
 62
     3
100
AcDbLine
 10
2292.500000000001
 20
-502.4999999999977
 30
0.0
 11
2977.500000000001
 21
-502.4999999999977
 31
0.0
  0
LINE
  5
370
330
EB
100
AcDbEntity
  8
LAYER0064
 62
     3
100
AcDbLine
 10
2292.500000000001
 20
-599.9999999999977
 30
0.0
 11
2977.500000000001
 21
-599.9999999999977
 31
0.0
  0
LINE
  5
371
330
EB
100
AcDbEntity
  8
LAYER0064
 62
     3
100
AcDbLine
 10
2292.500000000001
 20
-14.99999999999864
 30
0.0
 11
2977.500000000001
 21
-14.99999999999864
 31
0.0
  0
LINE
  5
372
330
EB
100
AcDbEntity
  8
LAYER0064
 62
     3
100
AcDbLine
 10
2292.500000000001
 20
-209.9999999999986
 30
0.0
 11
2977.500000000001
 21
-209.9999999999986
 31
0.0
  0
LINE
  5
373
330
EB
100
AcDbEntity
  8
LAYER0064
 62
     3
100
AcDbLine
 10
2292.500000000001
 20
-307.4999999999977
 30
0.0
 11
2977.500000000001
 21
-307.4999999999977
 31
0.0
  0
LINE
  5
374
330
EB
100
AcDbEntity
  8
LAYER0064
 62
     3
100
AcDbLine
 10
2292.500000000001
 20
-697.4999999999977
 30
0.0
 11
2977.500000000001
 21
-697.4999999999977
 31
0.0
  0
LINE
  5
375
330
EB
100
AcDbEntity
  8
LAYER0064
 62
     3
100
AcDbLine
 10
2292.500000000001
 20
-794.9999999999977
 30
0.0
 11
2977.500000000001
 21
-794.9999999999977
 31
0.0
  0
LINE
  5
376
330
EB
100
AcDbEntity
  8
LAYER0064
 62
     3
100
AcDbLine
 10
2292.500000000001
 20
-892.4999999999977
 30
0.0
 11
2977.500000000001
 21
-892.4999999999977
 31
0.0
  0
LINE
  5
377
330
EB
100
AcDbEntity
  8
LAYER0064
 62
     3
100
AcDbLine
 10
2292.500000000001
 20
-14.99999999999864
 30
0.0
 11
2292.500000000001
 21
-892.4999999999977
 31
0.0
  0
LINE
  5
378
330
EB
100
AcDbEntity
  8
LAYER0064
 62
     3
100
AcDbLine
 10
2412.500000000001
 20
-112.4999999999986
 30
0.0
 11
2412.500000000001
 21
-892.4999999999977
 31
0.0
  0
LINE
  5
379
330
EB
100
AcDbEntity
  8
LAYER0064
 62
     3
100
AcDbLine
 10
2977.500000000001
 20
-14.99999999999864
 30
0.0
 11
2977.500000000001
 21
-892.4999999999977
 31
0.0
  0
TEXT
  5
37A
330
EB
100
AcDbEntity
  8
LAYER0064
 62
     7
100
AcDbText
 10
2324.375000000001
 20
-189.3749999999986
 30
0.0
 40
56.25
  1
A
 41
1.423076923076923
  7
FDASTYLE1
 72
     5
 11
2380.625000000001
 21
-189.3749999999986
 31
0.0
100
AcDbText
  0
TEXT
  5
37B
330
EB
100
AcDbEntity
  8
LAYER0064
 62
     7
100
AcDbText
 10
2324.375000000001
 20
-286.8749999999982
 30
0.0
 40
56.25
  1
B
 41
1.469117647058824
  7
FDASTYLE1
 72
     5
 11
2380.625000000001
 21
-286.8749999999982
 31
0.0
100
AcDbText
  0
TEXT
  5
37C
330
EB
100
AcDbEntity
  8
LAYER0064
 62
     7
100
AcDbText
 10
2324.375000000001
 20
-384.3749999999982
 30
0.0
 40
56.25
  1
C
 41
1.469117647058824
  7
FDASTYLE1
 72
     5
 11
2380.625000000001
 21
-384.3749999999982
 31
0.0
100
AcDbText
  0
TEXT
  5
37D
330
EB
100
AcDbEntity
  8
LAYER0064
 62
     7
100
AcDbText
 10
2324.375000000001
 20
-481.8749999999982
 30
0.0
 40
56.25
  1
D
 41
1.469117647058824
  7
FDASTYLE1
 72
     5
 11
2380.625000000001
 21
-481.8749999999982
 31
0.0
100
AcDbText
  0
TEXT
  5
37E
330
EB
100
AcDbEntity
  8
LAYER0064
 62
     7
100
AcDbText
 10
2324.375000000001
 20
-579.3749999999982
 30
0.0
 40
56.25
  1
E
 41
1.458394160583942
  7
FDASTYLE1
 72
     5
 11
2380.625000000001
 21
-579.3749999999982
 31
0.0
100
AcDbText
  0
TEXT
  5
37F
330
EB
100
AcDbEntity
  8
LAYER0064
 62
     7
100
AcDbText
 10
2410.000000000001
 20
-91.87499999999864
 30
0.0
 40
56.25
  1
本図・参考・寸法
 41
0.6853026925055736
  7
FDASTYLE1
 72
     5
 11
2860.000000000001
 21
-91.87499999999864
 31
0.0
100
AcDbText
  0
TEXT
  5
380
330
EB
100
AcDbEntity
  8
LAYER0064
 62
     7
100
AcDbText
 10
2585.625000000001
 20
-579.3749999999982
 30
0.0
 40
56.25
  1
50　　　　度
 41
0.7231644260599793
  7
FDASTYLE1
 72
     5
 11
2940.000000000001
 21
-579.3749999999982
 31
0.0
100
AcDbText
  0
TEXT
  5
381
330
EB
100
AcDbEntity
  8
LAYER0064
 62
     7
100
AcDbText
 10
2532.187500000001
 20
-676.8749999999982
 30
0.0
 40
56.25
  1
168.7　mm
 41
1.094294842537654
  7
FDASTYLE1
 72
     5
 11
2937.187500000001
 21
-676.8749999999982
 31
0.0
100
AcDbText
  0
TEXT
  5
382
330
EB
100
AcDbEntity
  8
LAYER0064
 62
     7
100
AcDbText
 10
2324.375000000001
 20
-676.8749999999982
 30
0.0
 40
56.25
  1
F
 41
1.423076923076923
  7
FDASTYLE1
 72
     5
 11
2380.625000000001
 21
-676.8749999999982
 31
0.0
100
AcDbText
  0
TEXT
  5
383
330
EB
100
AcDbEntity
  8
LAYER0064
 62
     7
100
AcDbText
 10
2324.375000000001
 20
-774.3749999999982
 30
0.0
 40
56.25
  1
G
 41
1.423076923076923
  7
FDASTYLE1
 72
     5
 11
2380.625000000001
 21
-774.3749999999982
 31
0.0
100
AcDbText
  0
TEXT
  5
384
330
EB
100
AcDbEntity
  8
LAYER0064
 62
     7
100
AcDbText
 10
2324.375000000001
 20
-871.8749999999982
 30
0.0
 40
56.25
  1
H
 41
1.423076923076923
  7
FDASTYLE1
 72
     5
 11
2380.625000000001
 21
-871.8749999999982
 31
0.0
100
AcDbText
  0
TEXT
  5
385
330
EB
100
AcDbEntity
  8
LAYER0064
 62
     7
100
AcDbText
 10
2532.187500000001
 20
-871.8749999999982
 30
0.0
 40
56.25
  1
525.4　mm
 41
1.094294842537654
  7
FDASTYLE1
 72
     5
 11
2937.187500000001
 21
-871.8749999999982
 31
0.0
100
AcDbText
  0
TEXT
  5
386
330
EB
100
AcDbEntity
  8
LAYER0064
 62
     7
100
AcDbText
 10
2535.000000000001
 20
-189.3749999999986
 30
0.0
 40
56.25
  1
294.0　mm
 41
1.094294842537654
  7
FDASTYLE1
 72
     5
 11
2940.000000000001
 21
-189.3749999999986
 31
0.0
100
AcDbText
  0
TEXT
  5
387
330
EB
100
AcDbEntity
  8
LAYER0064
 62
     7
100
AcDbText
 10
2484.375000000001
 20
-286.8749999999977
 30
0.0
 40
56.25
  1
1901.1　mm
 41
1.107872398685652
  7
FDASTYLE1
 72
     5
 11
2940.000000000001
 21
-286.8749999999977
 31
0.0
100
AcDbText
  0
TEXT
  5
388
330
EB
100
AcDbEntity
  8
LAYER0064
 62
     7
100
AcDbText
 10
2484.375000000001
 20
-384.3749999999977
 30
0.0
 40
56.25
  1
1117.9　mm
 41
1.107872398685652
  7
FDASTYLE1
 72
     5
 11
2940.000000000001
 21
-384.3749999999977
 31
0.0
100
AcDbText
  0
TEXT
  5
389
330
EB
100
AcDbEntity
  8
LAYER0064
 62
     7
100
AcDbText
 10
2535.000000000001
 20
-481.8749999999977
 30
0.0
 40
56.25
  1
707.9　mm
 41
1.094294842537654
  7
FDASTYLE1
 72
     5
 11
2940.000000000001
 21
-481.8749999999977
 31
0.0
100
AcDbText
  0
TEXT
  5
38A
330
EB
100
AcDbEntity
  8
LAYER0064
 62
     7
100
AcDbText
 10
2535.000000000001
 20
-774.3749999999977
 30
0.0
 40
56.25
  1
572.7　mm
 41
1.094294842537654
  7
FDASTYLE1
 72
     5
 11
2940.000000000001
 21
-774.3749999999977
 31
0.0
100
AcDbText
  0
ENDBLK
  5
ED
330
EB
100
AcDbEntity
  8
0
100
AcDbBlockEnd
  0
BLOCK
  5
EF
330
EE
100
AcDbEntity
  8
0
100
AcDbBlockBegin
  2
GROUP_42
 70
     0
 71
     0
 10
0.0
 20
0.0
 30
0.0
  3
GROUP_42
  1

  0
LINE
  5
38B
330
EE
100
AcDbEntity
  8
LAYER0064
 62
     3
100
AcDbLine
 10
777.5000000000018
 20
1055.000000000001
 30
0.0
 11
1977.500000000001
 21
1055.000000000001
 31
0.0
  0
LINE
  5
38C
330
EE
100
AcDbEntity
  8
LAYER0064
 62
     3
100
AcDbLine
 10
777.5000000000018
 20
635.0000000000005
 30
0.0
 11
1977.500000000001
 21
635.0000000000005
 31
0.0
  0
LINE
  5
38D
330
EE
100
AcDbEntity
  8
LAYER0064
 62
     3
100
AcDbLine
 10
777.5000000000018
 20
565.0000000000005
 30
0.0
 11
1977.500000000001
 21
565.0000000000005
 31
0.0
  0
LINE
  5
38E
330
EE
100
AcDbEntity
  8
LAYER0064
 62
     3
100
AcDbLine
 10
777.5000000000018
 20
495.0000000000005
 30
0.0
 11
1977.500000000001
 21
495.0000000000005
 31
0.0
  0
LINE
  5
38F
330
EE
100
AcDbEntity
  8
LAYER0064
 62
     3
100
AcDbLine
 10
777.5000000000018
 20
1255.000000000001
 30
0.0
 11
1977.500000000001
 21
1255.000000000001
 31
0.0
  0
LINE
  5
390
330
EE
100
AcDbEntity
  8
LAYER0064
 62
     3
100
AcDbLine
 10
777.5000000000018
 20
1355.000000000001
 30
0.0
 11
777.5000000000018
 21
145.0000000000005
 31
0.0
  0
LINE
  5
391
330
EE
100
AcDbEntity
  8
LAYER0064
 62
     3
100
AcDbLine
 10
877.5000000000005
 20
1055.000000000001
 30
0.0
 11
877.5000000000005
 21
145.0000000000005
 31
0.0
  0
LINE
  5
392
330
EE
100
AcDbEntity
  8
LAYER0064
 62
     3
100
AcDbLine
 10
777.5000000000018
 20
985.0000000000005
 30
0.0
 11
1977.500000000001
 21
985.0000000000005
 31
0.0
  0
LINE
  5
393
330
EE
100
AcDbEntity
  8
LAYER0064
 62
     3
100
AcDbLine
 10
777.5000000000018
 20
705.0000000000005
 30
0.0
 11
1977.500000000001
 21
705.0000000000005
 31
0.0
  0
LINE
  5
394
330
EE
100
AcDbEntity
  8
LAYER0064
 62
     3
100
AcDbLine
 10
1977.500000000001
 20
1355.000000000001
 30
0.0
 11
1977.500000000001
 21
145.0000000000005
 31
0.0
  0
LINE
  5
395
330
EE
100
AcDbEntity
  8
LAYER0064
 62
     3
100
AcDbLine
 10
777.5000000000018
 20
915.0000000000005
 30
0.0
 11
1977.500000000001
 21
915.0000000000005
 31
0.0
  0
LINE
  5
396
330
EE
100
AcDbEntity
  8
LAYER0064
 62
     3
100
AcDbLine
 10
777.5000000000018
 20
425.0000000000005
 30
0.0
 11
1977.500000000001
 21
425.0000000000005
 31
0.0
  0
LINE
  5
397
330
EE
100
AcDbEntity
  8
LAYER0064
 62
     3
100
AcDbLine
 10
777.5000000000018
 20
285.0000000000005
 30
0.0
 11
1977.500000000001
 21
285.0000000000005
 31
0.0
  0
LINE
  5
398
330
EE
100
AcDbEntity
  8
LAYER0064
 62
     3
100
AcDbLine
 10
777.5000000000018
 20
355.0000000000005
 30
0.0
 11
1977.500000000001
 21
355.0000000000005
 31
0.0
  0
LINE
  5
399
330
EE
100
AcDbEntity
  8
LAYER0064
 62
     3
100
AcDbLine
 10
777.5000000000018
 20
215.0000000000005
 30
0.0
 11
1977.500000000001
 21
215.0000000000005
 31
0.0
  0
LINE
  5
39A
330
EE
100
AcDbEntity
  8
LAYER0064
 62
     3
100
AcDbLine
 10
777.5000000000018
 20
145.0000000000005
 30
0.0
 11
1977.500000000001
 21
145.0000000000005
 31
0.0
  0
LINE
  5
39B
330
EE
100
AcDbEntity
  8
LAYER0064
 62
     3
100
AcDbLine
 10
777.5000000000018
 20
845.0000000000005
 30
0.0
 11
1977.500000000001
 21
845.0000000000005
 31
0.0
  0
LINE
  5
39C
330
EE
100
AcDbEntity
  8
LAYER0064
 62
     3
100
AcDbLine
 10
777.5000000000018
 20
775.0000000000005
 30
0.0
 11
1977.500000000001
 21
775.0000000000005
 31
0.0
  0
TEXT
  5
39D
330
EE
100
AcDbEntity
  8
LAYER0064
 62
     7
100
AcDbText
 10
801.2500000000011
 20
993.7500000000005
 30
0.0
 40
52.5
  1
A
 41
1.423076923076923
  7
FDASTYLE1
 72
     5
 11
853.7500000000011
 21
993.7500000000005
 31
0.0
100
AcDbText
  0
TEXT
  5
39E
330
EE
100
AcDbEntity
  8
LAYER0064
 62
     7
100
AcDbText
 10
801.2500000000011
 20
853.7500000000005
 30
0.0
 40
52.5
  1
B
 41
1.469117647058823
  7
FDASTYLE1
 72
     5
 11
853.7500000000011
 21
853.7500000000005
 31
0.0
100
AcDbText
  0
TEXT
  5
39F
330
EE
100
AcDbEntity
  8
LAYER0064
 62
     7
100
AcDbText
 10
801.2500000000011
 20
713.7500000000005
 30
0.0
 40
52.5
  1
C
 41
1.469117647058823
  7
FDASTYLE1
 72
     5
 11
853.7500000000011
 21
713.7500000000005
 31
0.0
100
AcDbText
  0
TEXT
  5
3A0
330
EE
100
AcDbEntity
  8
LAYER0064
 62
     7
100
AcDbText
 10
801.2500000000011
 20
643.7500000000005
 30
0.0
 40
52.5
  1
D
 41
1.469117647058823
  7
FDASTYLE1
 72
     5
 11
853.7500000000011
 21
643.7500000000005
 31
0.0
100
AcDbText
  0
TEXT
  5
3A1
330
EE
100
AcDbEntity
  8
LAYER0064
 62
     7
100
AcDbText
 10
801.2500000000011
 20
573.7500000000005
 30
0.0
 40
52.5
  1
E
 41
1.458394160583942
  7
FDASTYLE1
 72
     5
 11
853.7500000000011
 21
573.7500000000005
 31
0.0
100
AcDbText
  0
TEXT
  5
3A2
330
EE
100
AcDbEntity
  8
LAYER0064
 62
     7
100
AcDbText
 10
902.5000000000005
 20
503.7500000000005
 30
0.0
 40
52.5
  1
傾斜角
 41
0.7149332061068702
  7
FDASTYLE1
 72
     5
 11
1060.000000000001
 21
503.7500000000005
 31
0.0
100
AcDbText
  0
TEXT
  5
3A3
330
EE
100
AcDbEntity
  8
LAYER0064
 62
     7
100
AcDbText
 10
902.5000000000005
 20
573.7500000000005
 30
0.0
 40
52.5
  1
落口高さ（D-410）
 41
0.9649631190727083
  7
FDASTYLE1
 72
     5
 11
1480.000000000001
 21
573.7500000000005
 31
0.0
100
AcDbText
  0
TEXT
  5
3A4
330
EE
100
AcDbEntity
  8
LAYER0064
 62
     7
100
AcDbText
 10
902.5000000000005
 20
713.7500000000005
 30
0.0
 40
52.5
  1
機全長（水平）
 41
0.7605220228384991
  7
FDASTYLE1
 72
     5
 11
1270.000000000001
 21
713.7500000000005
 31
0.0
100
AcDbText
  0
TEXT
  5
3A5
330
EE
100
AcDbEntity
  8
LAYER0064
 62
     7
100
AcDbText
 10
1060.000000000001
 20
503.7500000000005
 30
0.0
 40
52.5
  1
（標準・50度・変更可）
 41
0.7969155088745598
  7
FDASTYLE1
 72
     5
 11
1690.000000000001
 21
503.7500000000005
 31
0.0
100
AcDbText
  0
TEXT
  5
3A6
330
EE
100
AcDbEntity
  8
LAYER0064
 62
     7
100
AcDbText
 10
1847.500000000001
 20
573.7500000000005
 30
0.0
 40
52.5
  1
mm
 41
1.372252747252747
  7
FDASTYLE1
 72
     5
 11
1952.500000000001
 21
573.7500000000005
 31
0.0
100
AcDbText
  0
TEXT
  5
3A7
330
EE
100
AcDbEntity
  8
LAYER0064
 62
     7
100
AcDbText
 10
1847.500000000001
 20
713.7500000000005
 30
0.0
 40
52.5
  1
mm
 41
1.372252747252747
  7
FDASTYLE1
 72
     5
 11
1952.500000000001
 21
713.7500000000005
 31
0.0
100
AcDbText
  0
TEXT
  5
3A8
330
EE
100
AcDbEntity
  8
LAYER0064
 62
     7
100
AcDbText
 10
902.5000000000005
 20
993.7500000000005
 30
0.0
 40
52.5
  1
機　幅（水平）
 41
0.7605220228384991
  7
FDASTYLE1
 72
     5
 11
1270.000000000001
 21
993.7500000000005
 31
0.0
100
AcDbText
  0
TEXT
  5
3A9
330
EE
100
AcDbEntity
  8
LAYER0064
 62
     7
100
AcDbText
 10
902.5000000000005
 20
643.7500000000005
 30
0.0
 40
52.5
  1
機全高（垂直）
 41
0.7605220228384991
  7
FDASTYLE1
 72
     5
 11
1270.000000000001
 21
643.7500000000005
 31
0.0
100
AcDbText
  0
TEXT
  5
3AA
330
EE
100
AcDbEntity
  8
LAYER0064
 62
     7
100
AcDbText
 10
1847.500000000001
 20
643.7500000000005
 30
0.0
 40
52.5
  1
mm
 41
1.372252747252747
  7
FDASTYLE1
 72
     5
 11
1952.500000000001
 21
643.7500000000005
 31
0.0
100
AcDbText
  0
TEXT
  5
3AB
330
EE
100
AcDbEntity
  8
LAYER0064
 62
     7
100
AcDbText
 10
826.2500000000011
 20
1278.750000000001
 30
0.0
 40
52.5
  1
ヒンジ式・コンベヤー・中空軸モーター・仕様
 41
0.6842019437740529
  7
FDASTYLE1
 72
     5
 11
1928.750000000001
 21
1278.750000000001
 31
0.0
100
AcDbText
  0
TEXT
  5
3AC
330
EE
100
AcDbEntity
  8
LAYER0064
 62
     7
100
AcDbText
 10
1847.500000000001
 20
993.7500000000005
 30
0.0
 40
52.5
  1
mm
 41
1.372252747252747
  7
FDASTYLE1
 72
     5
 11
1952.500000000001
 21
993.7500000000005
 31
0.0
100
AcDbText
  0
TEXT
  5
3AD
330
EE
100
AcDbEntity
  8
LAYER0064
 62
     7
100
AcDbText
 10
1885.625000000001
 20
503.7500000000005
 30
0.0
 40
52.5
  1
度
 41
0.7171572146446518
  7
FDASTYLE1
 72
     5
 11
1938.125000000001
 21
503.7500000000005
 31
0.0
100
AcDbText
  0
TEXT
  5
3AE
330
EE
100
AcDbEntity
  8
LAYER0064
 62
     7
100
AcDbText
 10
902.5000000000005
 20
923.7500000000005
 30
0.0
 40
52.5
  1
標　準
 41
0.6905529953917051
  7
FDASTYLE1
 72
     5
 11
1060.000000000001
 21
923.7500000000005
 31
0.0
100
AcDbText
  0
TEXT
  5
3AF
330
EE
100
AcDbEntity
  8
LAYER0064
 62
     7
100
AcDbText
 10
1322.500000000001
 20
923.7500000000005
 30
0.0
 40
52.5
  1
約300～1100　mm
 41
1.093895428415001
  7
FDASTYLE1
 72
     5
 11
1952.500000000001
 21
923.7500000000005
 31
0.0
100
AcDbText
  0
TEXT
  5
3B0
330
EE
100
AcDbEntity
  8
LAYER0064
 62
     7
100
AcDbText
 10
902.5000000000005
 20
433.7500000000005
 30
0.0
 40
52.5
  1
減速機：0.1kw
 41
0.9467200168474257
  7
FDASTYLE1
 72
     5
 11
1375.000000000001
 21
433.7500000000005
 31
0.0
100
AcDbText
  0
TEXT
  5
3B1
330
EE
100
AcDbEntity
  8
LAYER0064
 62
     7
100
AcDbText
 10
1532.500000000001
 20
433.7500000000005
 30
0.0
 40
52.5
  1
168.7　mm
 41
1.215883158375171
  7
FDASTYLE1
 72
     5
 11
1952.500000000001
 21
433.7500000000005
 31
0.0
100
AcDbText
  0
TEXT
  5
3B2
330
EE
100
AcDbEntity
  8
LAYER0064
 62
     7
100
AcDbText
 10
801.2500000000011
 20
503.7500000000005
 30
0.0
 40
52.5
  1
F
 41
1.423076923076923
  7
FDASTYLE1
 72
     5
 11
853.7500000000011
 21
503.7500000000005
 31
0.0
100
AcDbText
  0
TEXT
  5
3B3
330
EE
100
AcDbEntity
  8
LAYER0064
 62
     7
100
AcDbText
 10
801.2500000000011
 20
433.7500000000005
 30
0.0
 40
52.5
  1
G
 41
1.423076923076923
  7
FDASTYLE1
 72
     5
 11
853.7500000000011
 21
433.7500000000005
 31
0.0
100
AcDbText
  0
TEXT
  5
3B4
330
EE
100
AcDbEntity
  8
LAYER0064
 62
     7
100
AcDbText
 10
1532.500000000001
 20
363.7500000000005
 30
0.0
 40
52.5
  1
195.7　mm
 41
1.215883158375171
  7
FDASTYLE1
 72
     5
 11
1952.500000000001
 21
363.7500000000005
 31
0.0
100
AcDbText
  0
TEXT
  5
3B5
330
EE
100
AcDbEntity
  8
LAYER0064
 62
     7
100
AcDbText
 10
1847.500000000001
 20
293.7500000000005
 30
0.0
 40
52.5
  1
mm
 41
1.372252747252747
  7
FDASTYLE1
 72
     5
 11
1952.500000000001
 21
293.7500000000005
 31
0.0
100
AcDbText
  0
TEXT
  5
3B6
330
EE
100
AcDbEntity
  8
LAYER0064
 62
     7
100
AcDbText
 10
902.5000000000005
 20
293.7500000000005
 30
0.0
 40
52.5
  1
総　幅（A+G+110）
 41
1.052687038988409
  7
FDASTYLE1
 72
     5
 11
1532.500000000001
 21
293.7500000000005
 31
0.0
100
AcDbText
  0
TEXT
  5
3B7
330
EE
100
AcDbEntity
  8
LAYER0064
 62
     7
100
AcDbText
 10
902.5000000000005
 20
363.7500000000005
 30
0.0
 40
52.5
  1
減速機：0.2kw
 41
0.9467200168474257
  7
FDASTYLE1
 72
     5
 11
1375.000000000001
 21
363.7500000000005
 31
0.0
100
AcDbText
  0
TEXT
  5
3B8
330
EE
100
AcDbEntity
  8
LAYER0064
 62
     7
100
AcDbText
 10
902.5000000000005
 20
223.7500000000005
 30
0.0
 40
52.5
  1
減速機：0.1kw
 41
0.9467200168474257
  7
FDASTYLE1
 72
     5
 11
1375.000000000001
 21
223.7500000000005
 31
0.0
100
AcDbText
  0
TEXT
  5
3B9
330
EE
100
AcDbEntity
  8
LAYER0064
 62
     7
100
AcDbText
 10
902.5000000000005
 20
153.7500000000005
 30
0.0
 40
52.5
  1
減速機：0.2kw
 41
0.9467200168474257
  7
FDASTYLE1
 72
     5
 11
1375.000000000001
 21
153.7500000000005
 31
0.0
100
AcDbText
  0
TEXT
  5
3BA
330
EE
100
AcDbEntity
  8
LAYER0064
 62
     7
100
AcDbText
 10
801.2500000000011
 20
223.7500000000005
 30
0.0
 40
52.5
  1
J
 41
1.433285509325681
  7
FDASTYLE1
 72
     5
 11
853.7500000000011
 21
223.7500000000005
 31
0.0
100
AcDbText
  0
TEXT
  5
3BB
330
EE
100
AcDbEntity
  8
LAYER0064
 62
     7
100
AcDbText
 10
1532.500000000001
 20
223.7500000000005
 30
0.0
 40
52.5
  1
525.4　mm
 41
1.215883158375171
  7
FDASTYLE1
 72
     5
 11
1952.500000000001
 21
223.7500000000005
 31
0.0
100
AcDbText
  0
TEXT
  5
3BC
330
EE
100
AcDbEntity
  8
LAYER0064
 62
     7
100
AcDbText
 10
1532.500000000001
 20
153.7500000000005
 30
0.0
 40
52.5
  1
599.4　mm
 41
1.215883158375171
  7
FDASTYLE1
 72
     5
 11
1952.500000000001
 21
153.7500000000005
 31
0.0
100
AcDbText
  0
TEXT
  5
3BD
330
EE
100
AcDbEntity
  8
LAYER0064
 62
     7
100
AcDbText
 10
811.2500000000018
 20
1178.750000000001
 30
0.0
 40
52.5
  1
御　客　先
 41
0.6898218478110758
  7
FDASTYLE1
 72
     5
 11
1073.750000000002
 21
1178.750000000001
 31
0.0
100
AcDbText
  0
TEXT
  5
3BE
330
EE
100
AcDbEntity
  8
LAYER0064
 62
     7
100
AcDbText
 10
798.5000000000018
 20
1082.500000000001
 30
0.0
 40
45.0
  1
END　USER
 41
0.9761221374045802
  7
FDASTYLE1
 72
     5
 11
1086.500000000002
 21
1082.500000000001
 31
0.0
100
AcDbText
  0
TEXT
  5
3BF
330
EE
100
AcDbEntity
  8
LAYER0064
 62
     7
100
AcDbText
 10
1900.000000000001
 20
1178.750000000001
 30
0.0
 40
52.5
  1
殿
 41
0.697138869504536
  7
FDASTYLE1
 72
     5
 11
1952.500000000001
 21
1178.750000000001
 31
0.0
100
AcDbText
  0
TEXT
  5
3C0
330
EE
100
AcDbEntity
  8
LAYER0064
 62
     7
100
AcDbText
 10
1900.000000000001
 20
1078.750000000001
 30
0.0
 40
52.5
  1
殿
 41
0.697138869504536
  7
FDASTYLE1
 72
     5
 11
1952.500000000001
 21
1078.750000000001
 31
0.0
100
AcDbText
  0
TEXT
  5
3C1
330
EE
100
AcDbEntity
  8
LAYER0064
 62
     7
100
AcDbText
 10
902.5000000000005
 20
853.7500000000005
 30
0.0
 40
52.5
  1
機　幅（垂直）
 41
0.7605220228384991
  7
FDASTYLE1
 72
     5
 11
1270.000000000001
 21
853.7500000000005
 31
0.0
100
AcDbText
  0
TEXT
  5
3C2
330
EE
100
AcDbEntity
  8
LAYER0064
 62
     7
100
AcDbText
 10
902.5000000000005
 20
783.7500000000005
 30
0.0
 40
52.5
  1
標　準
 41
0.6905529953917051
  7
FDASTYLE1
 72
     5
 11
1060.000000000001
 21
783.7500000000005
 31
0.0
100
AcDbText
  0
TEXT
  5
3C3
330
EE
100
AcDbEntity
  8
LAYER0064
 62
     7
100
AcDbText
 10
1532.500000000001
 20
783.7500000000005
 30
0.0
 40
52.5
  1
162.0　mm
 41
1.215883158375171
  7
FDASTYLE1
 72
     5
 11
1952.500000000001
 21
783.7500000000005
 31
0.0
100
AcDbText
  0
TEXT
  5
3C4
330
EE
100
AcDbEntity
  8
LAYER0064
 62
     7
100
AcDbText
 10
1270.000000000001
 20
853.7500000000005
 30
0.0
 40
52.5
  1
最低120～　　　　　mm
 41
0.8463343108504399
  7
FDASTYLE1
 72
     5
 11
1952.500000000001
 21
853.7500000000005
 31
0.0
100
AcDbText
  0
TEXT
  5
3C5
330
EE
100
AcDbEntity
  8
LAYER0064
 62
     7
100
AcDbText
 10
801.2500000000011
 20
293.7500000000005
 30
0.0
 40
52.5
  1
H
 41
1.423076923076923
  7
FDASTYLE1
 72
     5
 11
853.7500000000011
 21
293.7500000000005
 31
0.0
100
AcDbText
  0
LINE
  5
3C6
330
EE
100
AcDbEntity
  8
0
 62
     7
100
AcDbLine
 10
777.5000000000018
 20
915.0000000000005
 30
0.0
 11
877.5000000000005
 21
985.0000000000005
 31
0.0
  0
LINE
  5
3C7
330
EE
100
AcDbEntity
  8
0
 62
     7
100
AcDbLine
 10
777.5000000000018
 20
355.0000000000005
 30
0.0
 11
877.5000000000005
 21
425.0000000000005
 31
0.0
  0
LINE
  5
3C8
330
EE
100
AcDbEntity
  8
0
 62
     7
100
AcDbLine
 10
777.5000000000018
 20
145.0000000000005
 30
0.0
 11
877.5000000000005
 21
215.0000000000005
 31
0.0
  0
LINE
  5
3C9
330
EE
100
AcDbEntity
  8
0
 62
     7
100
AcDbLine
 10
777.5000000000018
 20
775.0000000000005
 30
0.0
 11
877.5000000000005
 21
845.0000000000005
 31
0.0
  0
LINE
  5
3CA
330
EE
100
AcDbEntity
  8
0
 62
     3
100
AcDbLine
 10
1977.500000000001
 20
1355.000000000001
 30
0.0
 11
777.5000000000018
 21
1355.000000000001
 31
0.0
  0
LINE
  5
3CB
330
EE
100
AcDbEntity
  8
0
 62
     3
100
AcDbLine
 10
777.5000000000018
 20
1155.000000000001
 30
0.0
 11
1977.500000000001
 21
1155.000000000001
 31
0.0
  0
LINE
  5
3CC
330
EE
100
AcDbEntity
  8
0
 62
     3
100
AcDbLine
 10
1107.500000000002
 20
1055.000000000001
 30
0.0
 11
1107.500000000002
 21
1255.000000000001
 31
0.0
  0
ENDBLK
  5
F0
330
EE
100
AcDbEntity
  8
0
100
AcDbBlockEnd
  0
BLOCK
  5
2B6
330
2B5
100
AcDbEntity
  8
0
100
AcDbBlockBegin
  2
_OPEN30
 70
     0
 71
     0
 10
0.0
 20
0.0
 30
0.0
  3
_OPEN30
  1

  0
LINE
  5
2B8
330
2B5
100
AcDbEntity
  8
0
  6
BYBLOCK
 62
     0
100
AcDbLine
 10
-1.0
 20
0.267949
 30
0.0
 11
0.0
 21
0.0
 31
0.0
  0
LINE
  5
2B9
330
2B5
100
AcDbEntity
  8
0
  6
BYBLOCK
 62
     0
100
AcDbLine
 10
0.0
 20
0.0
 30
0.0
 11
-1.0
 21
-0.267949
 31
0.0
  0
LINE
  5
2BA
330
2B5
100
AcDbEntity
  8
0
  6
BYBLOCK
 62
     0
100
AcDbLine
 10
0.0
 20
0.0
 30
0.0
 11
-1.0
 21
0.0
 31
0.0
  0
ENDBLK
  5
2B7
330
2B5
100
AcDbEntity
  8
0
100
AcDbBlockEnd
  0
ENDSEC
  0
SECTION
  2
ENTITIES
  0
INSERT
  5
F8
330
1F
100
AcDbEntity
  8
0
  6
CONTINUOUS
100
AcDbBlockReference
  2
GROUP_3
 10
0.0
 20
0.0
 30
0.0
  0
INSERT
  5
F9
330
1F
100
AcDbEntity
  8
0
  6
CONTINUOUS
100
AcDbBlockReference
  2
GROUP_4
 10
0.0
 20
0.0
 30
0.0
  0
INSERT
  5
FA
330
1F
100
AcDbEntity
  8
0
  6
CONTINUOUS
100
AcDbBlockReference
  2
GROUP_5
 10
0.0
 20
0.0
 30
0.0
  0
INSERT
  5
FB
330
1F
100
AcDbEntity
  8
0
  6
CONTINUOUS
100
AcDbBlockReference
  2
GROUP_8
 10
0.0
 20
0.0
 30
0.0
  0
INSERT
  5
FC
330
1F
100
AcDbEntity
  8
0
  6
CONTINUOUS
100
AcDbBlockReference
  2
GROUP_11
 10
0.0
 20
0.0
 30
0.0
  0
INSERT
  5
FD
330
1F
100
AcDbEntity
  8
0
  6
CONTINUOUS
100
AcDbBlockReference
  2
GROUP_12
 10
0.0
 20
0.0
 30
0.0
  0
INSERT
  5
10A
330
1F
100
AcDbEntity
  8
0
  6
CONTINUOUS
100
AcDbBlockReference
  2
GROUP_6
 10
0.0
 20
0.0
 30
0.0
  0
INSERT
  5
10B
330
1F
100
AcDbEntity
  8
0
  6
CONTINUOUS
100
AcDbBlockReference
  2
GROUP_7
 10
0.0
 20
0.0
 30
0.0
  0
INSERT
  5
118
330
1F
100
AcDbEntity
  8
0
  6
CONTINUOUS
100
AcDbBlockReference
  2
GROUP_9
 10
0.0
 20
0.0
 30
0.0
  0
INSERT
  5
119
330
1F
100
AcDbEntity
  8
0
  6
CONTINUOUS
100
AcDbBlockReference
  2
GROUP_10
 10
0.0
 20
0.0
 30
0.0
  0
INSERT
  5
17D
330
1F
100
AcDbEntity
  8
0
  6
CONTINUOUS
100
AcDbBlockReference
  2
GROUP_14
 10
0.0
 20
0.0
 30
0.0
  0
INSERT
  5
17E
330
1F
100
AcDbEntity
  8
0
  6
CONTINUOUS
100
AcDbBlockReference
  2
GROUP_15
 10
0.0
 20
0.0
 30
0.0
  0
INSERT
  5
17F
330
1F
100
AcDbEntity
  8
0
  6
CONTINUOUS
100
AcDbBlockReference
  2
GROUP_16
 10
0.0
 20
0.0
 30
0.0
  0
INSERT
  5
180
330
1F
100
AcDbEntity
  8
0
  6
CONTINUOUS
100
AcDbBlockReference
  2
GROUP_18
 10
0.0
 20
0.0
 30
0.0
  0
INSERT
  5
181
330
1F
100
AcDbEntity
  8
0
  6
CONTINUOUS
100
AcDbBlockReference
  2
GROUP_19
 10
0.0
 20
0.0
 30
0.0
  0
INSERT
  5
182
330
1F
100
AcDbEntity
  8
0
  6
CONTINUOUS
100
AcDbBlockReference
  2
GROUP_21
 10
0.0
 20
0.0
 30
0.0
  0
INSERT
  5
183
330
1F
100
AcDbEntity
  8
0
  6
CONTINUOUS
100
AcDbBlockReference
  2
GROUP_23
 10
0.0
 20
0.0
 30
0.0
  0
INSERT
  5
18B
330
1F
100
AcDbEntity
  8
0
  6
CONTINUOUS
100
AcDbBlockReference
  2
GROUP_17
 10
0.0
 20
0.0
 30
0.0
  0
INSERT
  5
1C9
330
1F
100
AcDbEntity
  8
0
  6
CONTINUOUS
100
AcDbBlockReference
  2
GROUP_20
 10
0.0
 20
0.0
 30
0.0
  0
INSERT
  5
1D7
330
1F
100
AcDbEntity
  8
0
  6
CONTINUOUS
100
AcDbBlockReference
  2
GROUP_22
 10
0.0
 20
0.0
 30
0.0
  0
INSERT
  5
1E6
330
1F
100
AcDbEntity
  8
0
  6
CONTINUOUS
100
AcDbBlockReference
  2
GROUP_25
 10
0.0
 20
0.0
 30
0.0
  0
INSERT
  5
1E7
330
1F
100
AcDbEntity
  8
0
  6
CONTINUOUS
100
AcDbBlockReference
  2
GROUP_28
 10
0.0
 20
0.0
 30
0.0
  0
INSERT
  5
1E8
330
1F
100
AcDbEntity
  8
0
  6
CONTINUOUS
100
AcDbBlockReference
  2
GROUP_29
 10
0.0
 20
0.0
 30
0.0
  0
INSERT
  5
1E9
330
1F
100
AcDbEntity
  8
0
  6
CONTINUOUS
100
AcDbBlockReference
  2
GROUP_30
 10
0.0
 20
0.0
 30
0.0
  0
INSERT
  5
1EA
330
1F
100
AcDbEntity
  8
0
  6
CONTINUOUS
100
AcDbBlockReference
  2
GROUP_31
 10
0.0
 20
0.0
 30
0.0
  0
INSERT
  5
1EB
330
1F
100
AcDbEntity
  8
0
  6
CONTINUOUS
100
AcDbBlockReference
  2
GROUP_33
 10
0.0
 20
0.0
 30
0.0
  0
INSERT
  5
1EC
330
1F
100
AcDbEntity
  8
0
  6
CONTINUOUS
100
AcDbBlockReference
  2
GROUP_26
 10
0.0
 20
0.0
 30
0.0
  0
INSERT
  5
1ED
330
1F
100
AcDbEntity
  8
0
  6
CONTINUOUS
100
AcDbBlockReference
  2
GROUP_27
 10
0.0
 20
0.0
 30
0.0
  0
INSERT
  5
28B
330
1F
100
AcDbEntity
  8
0
  6
CONTINUOUS
100
AcDbBlockReference
  2
GROUP_32
 10
0.0
 20
0.0
 30
0.0
  0
INSERT
  5
29F
330
1F
100
AcDbEntity
  8
0
  6
CONTINUOUS
100
AcDbBlockReference
  2
GROUP_35
 10
0.0
 20
0.0
 30
0.0
  0
INSERT
  5
2A0
330
1F
100
AcDbEntity
  8
0
  6
CONTINUOUS
100
AcDbBlockReference
  2
GROUP_36
 10
0.0
 20
0.0
 30
0.0
  0
INSERT
  5
347
330
1F
100
AcDbEntity
  8
0
  6
CONTINUOUS
100
AcDbBlockReference
  2
GROUP_38
 10
0.0
 20
0.0
 30
0.0
  0
INSERT
  5
3CD
330
1F
100
AcDbEntity
  8
0
  6
CONTINUOUS
100
AcDbBlockReference
  2
GROUP_1
 10
0.0
 20
0.0
 30
0.0
  0
INSERT
  5
3CE
330
1F
100
AcDbEntity
  8
0
  6
CONTINUOUS
100
AcDbBlockReference
  2
GROUP_2
 10
0.0
 20
0.0
 30
0.0
  0
INSERT
  5
3CF
330
1F
100
AcDbEntity
  8
0
  6
CONTINUOUS
100
AcDbBlockReference
  2
GROUP_13
 10
0.0
 20
0.0
 30
0.0
  0
INSERT
  5
3D0
330
1F
100
AcDbEntity
  8
0
  6
CONTINUOUS
100
AcDbBlockReference
  2
GROUP_24
 10
0.0
 20
0.0
 30
0.0
  0
INSERT
  5
3D1
330
1F
100
AcDbEntity
  8
0
  6
CONTINUOUS
100
AcDbBlockReference
  2
GROUP_34
 10
0.0
 20
0.0
 30
0.0
  0
INSERT
  5
3D2
330
1F
100
AcDbEntity
  8
0
  6
CONTINUOUS
100
AcDbBlockReference
  2
GROUP_37
 10
0.0
 20
0.0
 30
0.0
  0
INSERT
  5
3D3
330
1F
100
AcDbEntity
  8
0
  6
CONTINUOUS
100
AcDbBlockReference
  2
GROUP_39
 10
0.0
 20
0.0
 30
0.0
  0
INSERT
  5
3D4
330
1F
100
AcDbEntity
  8
0
  6
CONTINUOUS
100
AcDbBlockReference
  2
GROUP_40
 10
0.0
 20
0.0
 30
0.0
  0
INSERT
  5
3D5
330
1F
100
AcDbEntity
  8
0
  6
CONTINUOUS
100
AcDbBlockReference
  2
GROUP_41
 10
0.0
 20
0.0
 30
0.0
  0
INSERT
  5
3D6
330
1F
100
AcDbEntity
  8
0
  6
CONTINUOUS
100
AcDbBlockReference
  2
GROUP_42
 10
0.0
 20
0.0
 30
0.0
  0
INSERT
  5
3D7
330
1F
100
AcDbEntity
  8
LAYER0016
  6
CONTINUOUS
100
AcDbBlockReference
  2
DA_IMAGEDIMGROUP_1
 10
0.0
 20
0.0
 30
0.0
  0
INSERT
  5
3D8
330
1F
100
AcDbEntity
  8
LAYER0016
  6
CONTINUOUS
100
AcDbBlockReference
  2
DA_IMAGEDIMGROUP_2
 10
0.0
 20
0.0
 30
0.0
  0
INSERT
  5
3D9
330
1F
100
AcDbEntity
  8
LAYER0016
  6
CONTINUOUS
100
AcDbBlockReference
  2
DA_IMAGEDIMGROUP_3
 10
0.0
 20
0.0
 30
0.0
  0
INSERT
  5
3DA
330
1F
100
AcDbEntity
  8
LAYER0016
  6
CONTINUOUS
100
AcDbBlockReference
  2
DA_IMAGEDIMGROUP_4
 10
0.0
 20
0.0
 30
0.0
  0
INSERT
  5
3DB
330
1F
100
AcDbEntity
  8
LAYER0016
  6
CONTINUOUS
100
AcDbBlockReference
  2
DA_IMAGEDIMGROUP_5
 10
0.0
 20
0.0
 30
0.0
  0
INSERT
  5
3DC
330
1F
100
AcDbEntity
  8
LAYER0016
  6
CONTINUOUS
100
AcDbBlockReference
  2
DA_IMAGEDIMGROUP_6
 10
0.0
 20
0.0
 30
0.0
  0
INSERT
  5
3DD
330
1F
100
AcDbEntity
  8
LAYER0016
  6
CONTINUOUS
100
AcDbBlockReference
  2
DA_IMAGEDIMGROUP_7
 10
0.0
 20
0.0
 30
0.0
  0
INSERT
  5
3DE
330
1F
100
AcDbEntity
  8
LAYER0016
  6
CONTINUOUS
100
AcDbBlockReference
  2
DA_IMAGEDIMGROUP_8
 10
0.0
 20
0.0
 30
0.0
  0
INSERT
  5
3DF
330
1F
100
AcDbEntity
  8
LAYER0016
  6
CONTINUOUS
100
AcDbBlockReference
  2
DA_IMAGEDIMGROUP_9
 10
0.0
 20
0.0
 30
0.0
  0
INSERT
  5
3E0
330
1F
100
AcDbEntity
  8
LAYER0016
  6
CONTINUOUS
100
AcDbBlockReference
  2
DA_IMAGEDIMGROUP_10
 10
0.0
 20
0.0
 30
0.0
  0
INSERT
  5
3E1
330
1F
100
AcDbEntity
  8
LAYER0016
  6
CONTINUOUS
100
AcDbBlockReference
  2
DA_IMAGEDIMGROUP_11
 10
0.0
 20
0.0
 30
0.0
  0
INSERT
  5
3E2
330
1F
100
AcDbEntity
  8
LAYER0016
  6
CONTINUOUS
100
AcDbBlockReference
  2
DA_IMAGEDIMGROUP_12
 10
0.0
 20
0.0
 30
0.0
  0
ARC
  5
3E3
330
1F
100
AcDbEntity
  8
0
 62
     7
100
AcDbCircle
 10
24.1377222843476
 20
-290.7995028121702
 30
0.0
 40
350.0
100
AcDbArc
 50
60.00000000000004
 51
120.0000000016951
  0
INSERT
  5
3E4
330
1F
100
AcDbEntity
  8
0
 62
     7
100
AcDbBlockReference
  2
_OPEN30
 10
199.1377222843474
 20
12.30938851238341
 30
0.0
 41
29.99997611445993
 42
30.00008592479957
 50
332.455532054735
  0
TEXT
  5
3E5
330
1F
100
AcDbEntity
  8
LAYER0064
 62
     7
100
AcDbText
 10
-110.8622852156524
 20
99.2004971878298
 30
0.0
 40
60.0
  1
回転方向
 41
0.7856519136228591
  7
FDASTYLE1
 72
     5
 11
159.1377297843476
 21
99.2004971878298
 31
0.0
100
AcDbText
  0
TEXT
  5
3E6
330
1F
100
AcDbEntity
  8
LAYER0064
 62
     7
100
AcDbText
 10
-1881.693078752679
 20
-1068.714673916989
 30
0.0
 40
56.25
  1
M
 41
1.399159663865546
  7
FDASTYLE1
 72
     5
 11
-1825.443078752679
 21
-1068.714673916989
 31
0.0
100
AcDbText
  0
LINE
  5
3E7
330
1F
100
AcDbEntity
  8
0
 62
     4
100
AcDbLine
 10
-1678.568078752679
 20
-1040.589673916989
 30
0.0
 11
-1803.568078752679
 21
-1040.589673916989
 31
0.0
  0
INSERT
  5
3E8
330
1F
100
AcDbEntity
  8
0
 62
     4
100
AcDbBlockReference
  2
_OPEN30
 10
-1678.568078752679
 20
-1040.589673916989
 30
0.0
 41
29.99997611445993
 42
30.00008592479957
 50
360.0
  0
CIRCLE
  5
3E9
330
1F
100
AcDbEntity
  8
0
 62
     4
100
AcDbCircle
 10
-1853.568078752679
 20
-1040.589673916989
 30
0.0
 40
50.0
  0
ARC
  5
3EA
330
1F
100
AcDbEntity
  8
LAYER0144
 62
     7
100
AcDbCircle
 10
-1042.572909186913
 20
128.3017782100028
 30
0.0
 40
247.6
100
AcDbArc
 50
89.99999999998136
 51
149.9999999999809
  0
ARC
  5
3EB
330
1F
100
AcDbEntity
  8
LAYER0144
 62
     7
100
AcDbCircle
 10
-1042.572909186913
 20
128.3017782100028
 30
0.0
 40
409.5999960739083
100
AcDbArc
 50
89.99999999998136
 51
149.9999999999809
  0
LINE
  5
3EC
330
1F
100
AcDbEntity
  8
LAYER0144
 62
     7
100
AcDbLine
 10
-1042.572909186779
 20
537.901774283911
 30
0.0
 11
-727.5729091867796
 21
537.9017742838051
 31
0.0
  0
LINE
  5
3ED
330
1F
100
AcDbEntity
  8
LAYER0144
 62
     7
100
AcDbLine
 10
-1007.572909186864
 20
277.9017742839028
 30
0.0
 11
-677.5729091868642
 21
277.9017742837889
 31
0.0
  0
LINE
  5
3EE
330
1F
100
AcDbEntity
  8
LAYER0144
 62
     7
100
AcDbLine
 10
-1007.572909186864
 20
277.9017742839028
 30
0.0
 11
-1042.572909186832
 21
375.9017782100029
 31
0.0
  0
LINE
  5
3EF
330
1F
100
AcDbEntity
  8
LAYER0144
 62
     7
100
AcDbLine
 10
-682.5729091867969
 20
492.9017742837905
 30
0.0
 11
-727.5729091867796
 21
537.9017742838051
 31
0.0
  0
LINE
  5
3F0
330
1F
100
AcDbEntity
  8
LAYER0144
 62
     7
100
AcDbLine
 10
-682.5729091867969
 20
492.9017742837905
 30
0.0
 11
-677.5729091868642
 21
277.9017742837889
 31
0.0
  0
LINE
  5
3F1
330
1F
100
AcDbEntity
  8
LAYER0144
  6
CENTER
 62
     9
100
AcDbLine
 10
-992.5729091869129
 20
128.3017782099865
 30
0.0
 11
-1092.572909186913
 21
128.3017782100823
 31
0.0
  0
LINE
  5
3F2
330
1F
100
AcDbEntity
  8
LAYER0144
  6
CENTER
 62
     9
100
AcDbLine
 10
-999.2716389976994
 20
103.3017782099887
 30
0.0
 11
-1432.284340889832
 21
353.3017782103832
 31
0.0
  0
LINE
  5
3F3
330
1F
100
AcDbEntity
  8
LAYER0144
  6
CENTER
 62
     9
100
AcDbLine
 10
-1042.572909186929
 20
78.30177821000277
 30
0.0
 11
-1042.572909186848
 21
578.3017782101695
 31
0.0
  0
CIRCLE
  5
3F4
330
1F
100
AcDbEntity
  8
0
  6
CENTER
 62
     9
100
AcDbCircle
 10
-877.5729091868477
 20
400.9017742838538
 30
0.0
 40
43.90576900594158
  0
ARC
  5
3F5
330
1F
100
AcDbEntity
  8
0
  6
CENTER
 62
     9
100
AcDbCircle
 10
-1042.572909186913
 20
128.3017782100028
 30
0.0
 40
285.4200000000001
100
AcDbArc
 50
90.0
 51
149.9999999999573
  0
ARC
  5
3F6
330
1F
100
AcDbEntity
  8
0
  6
CENTER
 62
     9
100
AcDbCircle
 10
-1042.572909186913
 20
128.3017782100028
 30
0.0
 40
316.4199999999999
100
AcDbArc
 50
90.0
 51
149.9999999999519
  0
LINE
  5
3F7
330
1F
100
AcDbEntity
  8
0
  6
CENTER
 62
     9
100
AcDbLine
 10
-1042.572909186861
 20
444.7217782100026
 30
0.0
 11
-877.5957324700268
 21
444.807537357747
 31
0.0
  0
LINE
  5
3F8
330
1F
100
AcDbEntity
  8
0
  6
CENTER
 62
     9
100
AcDbLine
 10
-1042.572909186913
 20
413.7217782100029
 30
0.0
 11
-892.4651584039218
 21
359.5987784450572
 31
0.0
  0
LINE
  5
3F9
330
1F
100
AcDbEntity
  8
0
 62
     3
100
AcDbLine
 10
-1517.572909186848
 20
610.9017742838538
 30
0.0
 11
-1517.572909186848
 21
50.9017742838538
 31
0.0
  0
LINE
  5
3FA
330
1F
100
AcDbEntity
  8
0
 62
     3
100
AcDbLine
 10
-457.5729091868477
 20
610.9017742838538
 30
0.0
 11
-457.5729091868477
 21
50.9017742838538
 31
0.0
  0
LINE
  5
3FB
330
1F
100
AcDbEntity
  8
0
 62
     3
100
AcDbLine
 10
-1517.572909186848
 20
50.9017742838538
 30
0.0
 11
-457.5729091868477
 21
50.9017742838538
 31
0.0
  0
LINE
  5
3FC
330
1F
100
AcDbEntity
  8
0
 62
     3
100
AcDbLine
 10
-1517.572909186848
 20
610.9017742838538
 30
0.0
 11
-457.5729091868477
 21
610.9017742838538
 31
0.0
  0
VIEWPORT
  5
33
330
1B
100
AcDbEntity
 67
     1
  8
0
100
AcDbViewport
 10
450.0
 20
-0.0000000000004547
 30
0.0
 40
15165.0
 41
8730.0
 68
     1
 69
     1
1001
ACAD
1000
MVIEW
1002
{
1070
    16
1010
0.0
1020
0.0
1030
0.0
1010
0.0
1020
0.0
1030
1.0
1040
0.0
1040
8730.0
1040
450.0
1040
-0.0000000000004547
1040
50.0
1040
0.0
1040
0.0
1070
     0
1070
   100
1070
     0
1070
     1
1070
     0
1070
     0
1070
     0
1070
     0
1040
0.0
1040
0.0
1040
0.0
1040
1.0
1040
1.0
1040
0.0
1040
0.0
1070
     0
1002
{
1002
}
1002
}
  0
ENDSEC
  0
SECTION
  2
OBJECTS
  0
DICTIONARY
  5
C
330
0
100
AcDbDictionary
  3
ACAD_GROUP
350
D
  3
ACAD_LAYOUT
350
1A
  3
ACAD_MLINESTYLE
350
17
  3
ACAD_PLOTSETTINGS
350
19
  3
ACAD_TABLESTYLE
350
2A
  3
ACDBHEADERROUNDTRIPXREC
350
3FD
  3
ACDBVARIABLEDICTIONARY
350
2C
  0
DICTIONARY
  5
41D
330
29
100
AcDbDictionary
280
     1
  3
ACAD_XREC_ROUNDTRIP
360
41E
  0
DICTIONARY
  5
D
102
{ACAD_REACTORS
330
C
102
}
330
C
100
AcDbDictionary
  0
DICTIONARY
  5
1A
102
{ACAD_REACTORS
330
C
102
}
330
C
100
AcDbDictionary
  0
DICTIONARY
  5
17
102
{ACAD_REACTORS
330
C
102
}
330
C
100
AcDbDictionary
  3
STANDARD
350
18
  0
DICTIONARY
  5
19
102
{ACAD_REACTORS
330
C
102
}
330
C
100
AcDbDictionary
  0
DICTIONARY
  5
2A
102
{ACAD_REACTORS
330
C
102
}
330
C
100
AcDbDictionary
  3
STANDARD
350
2B
  0
DICTIONARY
  5
3FD
102
{ACAD_REACTORS
330
C
102
}
330
C
100
AcDbDictionary
  3
CEPSNTYPE
350
406
  3
DIMSTYLEDATA
350
41C
  3
FINGERPRINTGUID
350
407
  3
HYPERLINKBASE
350
400
  3
INSUNITS
350
405
  3
LAYOUTDICT
350
402
  3
LWETCUNION
350
404
  3
PLOTSETDICT
350
403
  3
PSVPSCALE
350
409
  3
PUCSBASE
350
40C
  3
PUCSORGBACK
350
412
  3
PUCSORGBOTTOM
350
40E
  3
PUCSORGFRONT
350
411
  3
PUCSORGLEFT
350
40F
  3
PUCSORGRIGHT
350
410
  3
PUCSORGTOP
350
40D
  3
PUCSORTHOREF
350
40A
  3
PUCSORTHOVIEW
350
40B
  3
STYLESHEET
350
401
  3
TSTACKALIGN
350
3FE
  3
TSTACKSIZE
350
3FF
  3
UCSBASE
350
415
  3
UCSORGBACK
350
41B
  3
UCSORGBOTTOM
350
417
  3
UCSORGFRONT
350
41A
  3
UCSORGLEFT
350
418
  3
UCSORGRIGHT
350
419
  3
UCSORGTOP
350
416
  3
UCSORTHOREF
350
413
  3
UCSORTHOVIEW
350
414
  3
VERSIONGUID
350
408
  0
DICTIONARY
  5
2C
102
{ACAD_REACTORS
330
C
102
}
330
C
100
AcDbDictionary
  3
CTABLESTYLE
350
2D
  0
XRECORD
  5
41E
102
{ACAD_REACTORS
330
41D
102
}
330
41D
100
AcDbXrecord
102
UCS
 74
     0
 71
     1
 10
0.0
 20
0.0
 30
0.0
 10
1.0
 20
0.0
 30
0.0
 10
0.0
 20
1.0
 30
0.0
146
0.0
 79
     0
102
VIEW
281
     0
  0
MLINESTYLE
  5
18
102
{ACAD_REACTORS
330
17
102
}
330
17
100
AcDbMlineStyle
  2
Standard
 70
     0
  3

 62
   256
 51
90.0
 52
90.0
 71
     2
 49
0.5
 62
   256
  6
BYLAYER
 49
-0.5
 62
   256
  6
BYLAYER
  0
TABLESTYLE
  5
2B
102
{ACAD_REACTORS
330
2A
102
}
330
2A
100
AcDbTableStyle
  3
Standard
 70
     0
 71
     0
 40
0.06
 41
0.06
280
     0
281
     0
  7
STANDARD
140
0.18
170
     2
 62
     0
 63
     7
283
     0
274
    -2
284
     1
 64
     0
275
    -2
285
     1
 65
     0
276
    -2
286
     1
 66
     0
277
    -2
287
     1
 67
     0
278
    -2
288
     1
 68
     0
279
    -2
289
     1
 69
     0
  7
STANDARD
140
0.25
170
     5
 62
     0
 63
     7
283
     0
274
    -2
284
     1
 64
     0
275
    -2
285
     1
 65
     0
276
    -2
286
     1
 66
     0
277
    -2
287
     1
 67
     0
278
    -2
288
     1
 68
     0
279
    -2
289
     1
 69
     0
  7
STANDARD
140
0.18
170
     5
 62
     0
 63
     7
283
     0
274
    -2
284
     1
 64
     0
275
    -2
285
     1
 65
     0
276
    -2
286
     1
 66
     0
277
    -2
287
     1
 67
     0
278
    -2
288
     1
 68
     0
279
    -2
289
     1
 69
     0
  0
XRECORD
  5
406
102
{ACAD_REACTORS
330
3FD
102
}
330
3FD
100
AcDbXrecord
 90
        0
  0
XRECORD
  5
41C
102
{ACAD_REACTORS
330
3FD
102
}
330
3FD
100
AcDbXrecord
1000
DSTYLE
1002
{
1070
   171
 70
     2
1070
   143
 40
25.4
1070
   274
 70
     2
1070
    41
 40
0.18
1070
   141
 40
0.09
1070
   271
 70
     4
1070
    43
 40
0.38
1070
    44
 40
0.18
1070
   278
 70
    46
1070
    42
 40
0.0625
1070
   147
 40
0.09
1070
    77
 70
     3
1070
   272
 70
     4
1070
    73
 70
     1
1070
   172
 70
     0
1070
    74
 70
     1
1070
   283
 70
     1
1070
   340
340
11
1070
   140
 40
0.18
1070
   284
 70
     0
1070
    78
 70
     0
1002
}
  0
XRECORD
  5
407
102
{ACAD_REACTORS
330
3FD
102
}
330
3FD
100
AcDbXrecord
  1
{FAEB1C30-E019-11D5-929B-00C0DF256EC4}
  0
XRECORD
  5
400
102
{ACAD_REACTORS
330
3FD
102
}
330
3FD
100
AcDbXrecord
  1

  0
XRECORD
  5
405
102
{ACAD_REACTORS
330
3FD
102
}
330
3FD
100
AcDbXrecord
 90
        4
  0
XRECORD
  5
402
102
{ACAD_REACTORS
330
3FD
102
}
330
3FD
100
AcDbXrecord
340
1A
  0
XRECORD
  5
404
102
{ACAD_REACTORS
330
3FD
102
}
330
3FD
100
AcDbXrecord
 90
    10240
  0
XRECORD
  5
403
102
{ACAD_REACTORS
330
3FD
102
}
330
3FD
100
AcDbXrecord
340
19
  0
XRECORD
  5
409
102
{ACAD_REACTORS
330
3FD
102
}
330
3FD
100
AcDbXrecord
 40
0.0
  0
XRECORD
  5
40C
102
{ACAD_REACTORS
330
3FD
102
}
330
3FD
100
AcDbXrecord
340
0
  0
XRECORD
  5
412
102
{ACAD_REACTORS
330
3FD
102
}
330
3FD
100
AcDbXrecord
 10
0.0
 20
0.0
 30
0.0
  0
XRECORD
  5
40E
102
{ACAD_REACTORS
330
3FD
102
}
330
3FD
100
AcDbXrecord
 10
0.0
 20
0.0
 30
0.0
  0
XRECORD
  5
411
102
{ACAD_REACTORS
330
3FD
102
}
330
3FD
100
AcDbXrecord
 10
0.0
 20
0.0
 30
0.0
  0
XRECORD
  5
40F
102
{ACAD_REACTORS
330
3FD
102
}
330
3FD
100
AcDbXrecord
 10
0.0
 20
0.0
 30
0.0
  0
XRECORD
  5
410
102
{ACAD_REACTORS
330
3FD
102
}
330
3FD
100
AcDbXrecord
 10
0.0
 20
0.0
 30
0.0
  0
XRECORD
  5
40D
102
{ACAD_REACTORS
330
3FD
102
}
330
3FD
100
AcDbXrecord
 10
0.0
 20
0.0
 30
0.0
  0
XRECORD
  5
40A
102
{ACAD_REACTORS
330
3FD
102
}
330
3FD
100
AcDbXrecord
340
0
  0
XRECORD
  5
40B
102
{ACAD_REACTORS
330
3FD
102
}
330
3FD
100
AcDbXrecord
 70
     0
  0
XRECORD
  5
401
102
{ACAD_REACTORS
330
3FD
102
}
330
3FD
100
AcDbXrecord
  1

  0
XRECORD
  5
3FE
102
{ACAD_REACTORS
330
3FD
102
}
330
3FD
100
AcDbXrecord
 90
        1
  0
XRECORD
  5
3FF
102
{ACAD_REACTORS
330
3FD
102
}
330
3FD
100
AcDbXrecord
 90
       70
  0
XRECORD
  5
415
102
{ACAD_REACTORS
330
3FD
102
}
330
3FD
100
AcDbXrecord
340
0
  0
XRECORD
  5
41B
102
{ACAD_REACTORS
330
3FD
102
}
330
3FD
100
AcDbXrecord
 10
0.0
 20
0.0
 30
0.0
  0
XRECORD
  5
417
102
{ACAD_REACTORS
330
3FD
102
}
330
3FD
100
AcDbXrecord
 10
0.0
 20
0.0
 30
0.0
  0
XRECORD
  5
41A
102
{ACAD_REACTORS
330
3FD
102
}
330
3FD
100
AcDbXrecord
 10
0.0
 20
0.0
 30
0.0
  0
XRECORD
  5
418
102
{ACAD_REACTORS
330
3FD
102
}
330
3FD
100
AcDbXrecord
 10
0.0
 20
0.0
 30
0.0
  0
XRECORD
  5
419
102
{ACAD_REACTORS
330
3FD
102
}
330
3FD
100
AcDbXrecord
 10
0.0
 20
0.0
 30
0.0
  0
XRECORD
  5
416
102
{ACAD_REACTORS
330
3FD
102
}
330
3FD
100
AcDbXrecord
 10
0.0
 20
0.0
 30
0.0
  0
XRECORD
  5
413
102
{ACAD_REACTORS
330
3FD
102
}
330
3FD
100
AcDbXrecord
340
0
  0
XRECORD
  5
414
102
{ACAD_REACTORS
330
3FD
102
}
330
3FD
100
AcDbXrecord
 70
     0
  0
XRECORD
  5
408
102
{ACAD_REACTORS
330
3FD
102
}
330
3FD
100
AcDbXrecord
  1
{FAEB1C32-E019-11D5-929B-00C0DF256EC4}
  0
DICTIONARYVAR
  5
2D
102
{ACAD_REACTORS
330
2C
102
}
330
2C
100
DictionaryVariables
280
     0
  1
Standard
  0
ENDSEC
  0
EOF
